By the Way Bass Solo Tab

von Joosten, 30.08.06.

  1. Joosten

    Joosten Registrierter Benutzer

    Im Board seit:
    30.10.05
    Zuletzt hier:
    8.09.13
    Beiträge:
    377
    Ort:
    4sen
    Zustimmungen:
    0
    Kekse:
    171
    Erstellt: 30.08.06   #1
    Hallo

    ich spiele zur zeit grade eben dieses (sehr nette) Stück und suche jetzt einen Tab für das Solo, das der Herr beim Auftritt auf Slane Castle spielt. Wer es grad nich im Ohr hat:
    -> By the Way mit Solo (YouTube.com)
    Ich hab mich auch selbst schon durch einige Tab Seiten geklickt, konnte aber nichts finden... Wäre super, wenn ihr mir da helfen könntet!

    Julian
     
  2. JanBass

    JanBass Registrierter Benutzer

    Im Board seit:
    19.02.06
    Zuletzt hier:
    8.12.14
    Beiträge:
    711
    Ort:
    Hamburg
    Zustimmungen:
    1
    Kekse:
    803
    Erstellt: 30.08.06   #2
    Welchen Teil vom Song meinst du genau? Dieses kurze Jam-Stück am Ende?
     
  3. Oliver_

    Oliver_ Registrierter Benutzer

    Im Board seit:
    15.04.05
    Zuletzt hier:
    23.11.16
    Beiträge:
    2.755
    Ort:
    Frankfurt am Main
    Zustimmungen:
    72
    Kekse:
    2.836
    Erstellt: 30.08.06   #3
    Oder der Break in der Mitte, wo der Herr Flea ein bisschen etwas anderes spielt?
     
  4. Joosten

    Joosten Threadersteller Registrierter Benutzer

    Im Board seit:
    30.10.05
    Zuletzt hier:
    8.09.13
    Beiträge:
    377
    Ort:
    4sen
    Zustimmungen:
    0
    Kekse:
    171
    Erstellt: 30.08.06   #4
    Yo, genau. Ich meine den Mittleren Teil, wo normalerweise das Interlude (so heisst das in den Tabs) gespielt wird...
     
  5. Schmuddelfutz

    Schmuddelfutz Registrierter Benutzer

    Im Board seit:
    24.12.05
    Zuletzt hier:
    24.11.12
    Beiträge:
    792
    Ort:
    Hamburg
    Zustimmungen:
    2
    Kekse:
    478
    Erstellt: 31.08.06   #5
    Ich häng mich mal kurz dran, weil ich 2 Fragen habe, die indirekt mit dem Thema zu tun haben:

    1) Wie spielst du / spielt ihr bei By The Way die Leersaiten? Bei mir klingt es immer sehr nach Matsch.
    2) Gibt es irgendwo Tabs zu dem Jam der als Intro zu Californication dient? Ich hab nur Gitarrentabs gefunden. (Slane Castle)



    Ontopic: Also es klingt nicht allzu besonders, halt mit seinem Overdrive n bisschen rumgespielt ;) Glaub bei Live in Hyde Park hatte er was wesentlich schwereres gespielt an der Stelle...
     
  6. Ryknow

    Ryknow Registrierter Benutzer

    Im Board seit:
    18.01.06
    Zuletzt hier:
    18.08.15
    Beiträge:
    4.640
    Ort:
    Zuhause
    Zustimmungen:
    730
    Kekse:
    10.700
    Erstellt: 31.08.06   #6
    ja gibbet alles...ich hab alles ^^

    gib mir E-Mail adresse und ich schick es dir nachher rüber
     
  7. Joosten

    Joosten Threadersteller Registrierter Benutzer

    Im Board seit:
    30.10.05
    Zuletzt hier:
    8.09.13
    Beiträge:
    377
    Ort:
    4sen
    Zustimmungen:
    0
    Kekse:
    171
    Erstellt: 31.08.06   #7
    Meinst du mit "alles" auch die Alternative des Basssolos im stück? Wenn ja, sach bescheid!! ;-)
     
  8. Oliver_

    Oliver_ Registrierter Benutzer

    Im Board seit:
    15.04.05
    Zuletzt hier:
    23.11.16
    Beiträge:
    2.755
    Ort:
    Frankfurt am Main
    Zustimmungen:
    72
    Kekse:
    2.836
    Erstellt: 31.08.06   #8
    Wieso denn eigentlich hier immer alles per E-Mail? Andere wären sicher auch interessiert :)
     
  9. Cliff89

    Cliff89 Registrierter Benutzer

    Im Board seit:
    13.07.06
    Zuletzt hier:
    26.08.12
    Beiträge:
    300
    Ort:
    Altendiez
    Zustimmungen:
    0
    Kekse:
    147
    Erstellt: 31.08.06   #9
    So wie ich :)
     
  10. 38° im Schatten

    38° im Schatten Registrierter Benutzer

    Im Board seit:
    27.05.06
    Zuletzt hier:
    1.11.16
    Beiträge:
    496
    Zustimmungen:
    0
    Kekse:
    24
    Erstellt: 31.08.06   #10
    Ich auch ;)
     
  11. Ryknow

    Ryknow Registrierter Benutzer

    Im Board seit:
    18.01.06
    Zuletzt hier:
    18.08.15
    Beiträge:
    4.640
    Ort:
    Zuhause
    Zustimmungen:
    730
    Kekse:
    10.700
    Erstellt: 01.09.06   #11
    jut...die sache ist, das es verdammt schwer ist hier n ordentlichen tab reinzustellen...
    mach ich gleich wenn ich zuhause bin

    also ich hab Califonication Hyde Park und Slane Castle..
    dann hab ich by The Way Hyde Park und slane Castle...jeweils die Bridge...wo er so mit Distortion abgeht...und das ende wo er und John noch n bissel spielen...

    ich hoffe ich finde die in meinem Riesen Tabordner -,-*
     
  12. Oliver_

    Oliver_ Registrierter Benutzer

    Im Board seit:
    15.04.05
    Zuletzt hier:
    23.11.16
    Beiträge:
    2.755
    Ort:
    Frankfurt am Main
    Zustimmungen:
    72
    Kekse:
    2.836
    Erstellt: 01.09.06   #12
    Wieso das denn? Benutz einfach die CODE-Tags, dann ist alle wie im Editor. Ansonsten, wenn du es in GP hast, exportiere es als PDF oder meinetwegen auch ASCII.
     
  13. Ryknow

    Ryknow Registrierter Benutzer

    Im Board seit:
    18.01.06
    Zuletzt hier:
    18.08.15
    Beiträge:
    4.640
    Ort:
    Zuhause
    Zustimmungen:
    730
    Kekse:
    10.700
    Erstellt: 01.09.06   #13


    Song: By The Way Live At Hyde Park
    Artist: Red Hot Chili Peppers
    Tabber: Dunk Wells (Roadtrippin686)

    This is Played in Drop D Tuning (G D A D)
    I Looked at the other tabs and the intro didn’t sound right so I’ve tabbed out
    The way I think it goes. I’ve also added the outro on at the end.
    Please Rate this tab.

    Intro
    G--------------------------------------------------------------------------
    D--1515151515151515----1414141414141414------------------------------------
    A-------------------------------------------1212121212121212---------------
    E-------------------------------------------------------------------------

    G---1717171717171717--1919191919191919-----------------------------------
    D--------------------------------------2121212121212121---------------------
    A----------------------------------------------------------------------------
    E--------------------------------------------------------------------------

    G-------------5555555-----22222222----------------------------------------------
    D----33333333------------------------------------------------------------------
    A----------------------------------------------------------------------------
    E--------------------------------------------------------------------------

    G---1717171717171717--1919191919191919-----------------------------------
    D--------------------------------------2121212121212121---------------------
    A----------------------------------------------------------------------------
    E--------------------------------------------------------------------------

    Verse
    G----------------------------------------------------------------------------
    D---------3---------------3-------------------3--------------------------------
    A-----3/5---3/5-0/3----3/5---0/3-----------3/5---3/5-0/3--------3/5--5/6666666--- x4
    E-0-0---------------0-0----------3/5---0-0------------------0-0-----------------

    Chorus
    G-------------------------------------------------------------------------------------
    D-------8-9-1010101010-12121212-10-----------8-9-10101010-777777-888888---------------
    A--8888----------------------------12---8888------------------------------------------
    E-------------------------------------------------------------------------------------

    Verse
    G----------------------------------------------------------------------------
    D---------3---------------3-------------------3--------------------------------
    A-----3/5---3/5-0/3----3/5---0/3-----------3/5---3/5-0/3--------3/5--5/6666666-- x4
    E-0-0---------------0-0----------3/5---0-0------------------0-0-----------------


    G--------------------------------------------------------------------------
    D--1515151515151515----1414141414141414------------------------------------
    A-------------------------------------------1212121212121212---------------
    E-------------------------------------------------------------------------

    G---1717171717171717--1919191919191919-----------------------------------
    D--------------------------------------2121212121212121---------------------
    A----------------------------------------------------------------------------
    E--------------------------------------------------------------------------

    G-------------5555555-----22222222----------------------------------------------
    D----33333333------------------------------------------------------------------
    A----------------------------------------------------------------------------
    E--------------------------------------------------------------------------

    G---1717171717171717--1919191919191919-----------------------------------
    D--------------------------------------2121212121212121---------------------
    A----------------------------------------------------------------------------
    E--------------------------------------------------------------------------

    Solo
    G-19-17----19-17----19-17----19-17----19-17----
    D-------19-------19-------19-------19-------19-
    A----------------------------------------------
    E----------------------------------------------

    G-17-14----14-17-14----17-14-------------
    D-------17----------17-------17-14-(14)--
    A----------------------------------------
    E----------------------------------------

    G-12-10----12-10----12-10----10-------------------------------
    D-------12-------12-------12----12-10-12-10-------------------
    A-------------------------------------------10--5--3----------
    E-----------------------------------------------------3--1b2--

    Verse
    G----------------------------------------------------------------------------
    D---------3---------------3-------------------3--------------------------------
    A-----3/5---3/5-0/3----3/5---0/3-----------3/5---3/5-0/3--------3/5--5/6666666--- x4
    E-0-0---------------0-0----------3/5---0-0------------------0-0-----------------

    Chorus
    G-------------------------------------------------------------------------------------
    D-------8-9-1010101010-12121212-10-----------8-9-10101010-777777-888888---------------
    A--8888----------------------------12---8888------------------------------------------
    E-------------------------------------------------------------------------------------

    G---------------------------------------------
    D-----------7-8-10--(10)-10-10-10-10-9-10-/12-
    A-8-8-8-8-8-----------------------------------
    E---------------------------------------------

    G--------------------------------------------------------
    D-14--15-14-15-17--15-14-12--12-10----12-10-12-10--------
    A----------------------------------12-------------12-10--
    E--------------------------------------------------------

    G------------------------------------------------------------------
    D--------8-9-1010101010---7777777-888888----------------------------
    A--88888-------------------------------------------------------------
    E------------------------------------------------------------------

    G---------17-14-------------------------------
    D----------------17-15-------15----17-17-17-17-
    A--------------------17-------17-------------
    E----------------------------------------------

    G------------------------------------------
    D-17s19s17S15-17-15-----15----15----15-17--
    A-------------------15-----17----17--------
    E------------------------------------------

    G-------------------------------------------------
    D-14s12----------12-13s14-14-14S17-17-17-17-14-12-
    A-------15-12-15----------------------------------
    E-------------------------------------------------

    G------------------------------------------
    D-14-12-15-12------------------------------
    A-------------15-14-15-14---15-14---15-14--
    E------------------------------------------

    G----------------------------------------------
    D----------------------------------------------
    A--555----111---------333---------------------- x4
    E--------------111-----------------------------

    G----------------------------------------------
    D----------------------------------------------
    A---555--------888-----------------------------
    E--------66----------888-----------------------

    G----------------------------------------------
    D----------------------------------------------
    A---555--------8808---------------------------- x2
    E--------66----------888-----------------------

    G----------------------------------------------
    D----------------------------------------------
    A---555--------888--------------5--------------
    E--------66----------888-----------------------
     
  14. Ryknow

    Ryknow Registrierter Benutzer

    Im Board seit:
    18.01.06
    Zuletzt hier:
    18.08.15
    Beiträge:
    4.640
    Ort:
    Zuhause
    Zustimmungen:
    730
    Kekse:
    10.700
    Erstellt: 01.09.06   #14
  15. Oliver_

    Oliver_ Registrierter Benutzer

    Im Board seit:
    15.04.05
    Zuletzt hier:
    23.11.16
    Beiträge:
    2.755
    Ort:
    Frankfurt am Main
    Zustimmungen:
    72
    Kekse:
    2.836
    Erstellt: 01.09.06   #15
  16. Ryknow

    Ryknow Registrierter Benutzer

    Im Board seit:
    18.01.06
    Zuletzt hier:
    18.08.15
    Beiträge:
    4.640
    Ort:
    Zuhause
    Zustimmungen:
    730
    Kekse:
    10.700
    Erstellt: 01.09.06   #16
    1tens...ich habs gemacht...da hat er alles verschoben...
    2tens...was meinst woher ich die Tabs hab? Bloss wenn jemand fragt ob er die hat und keiner die findet, ich die versuch reinzustellen bekomms nich hin lad dann alle livedinger von Slane Castle und Hyde Park hoch die ich hab und werd dann noch angepflaumt das ist nich schön...
    3tens...wozu edit button? ich hab versucht das Ding hier reinzuschreiben hat nich geklappt..ich lass es drinne...und schreib nachher noch nach das ich es hochgeladen hab....was ist so schlimm da dran?...

    Da will man doch nur helfen -,-
     
  17. Oliver_

    Oliver_ Registrierter Benutzer

    Im Board seit:
    15.04.05
    Zuletzt hier:
    23.11.16
    Beiträge:
    2.755
    Ort:
    Frankfurt am Main
    Zustimmungen:
    72
    Kekse:
    2.836
    Erstellt: 01.09.06   #17
    Wird alles verschoben, ja ;)

    BTW: .rar mag das Forum nicht, .zip schon. Und .zip geht mit WinRAR auch... (oder WinACE oder 7Zip oder oder oder..)

    Gruß

    Code:
    Intro
    G--------------------------------------------------------------------------
    D--1515151515151515----1414141414141414------------------------------------
    A-------------------------------------------1212121212121212---------------
    E-------------------------------------------------------------------------
    
    G---1717171717171717--1919191919191919-----------------------------------
    D--------------------------------------2121212121212121---------------------
    A----------------------------------------------------------------------------
    E--------------------------------------------------------------------------
    
    G-------------5555555-----22222222----------------------------------------------
    D----33333333------------------------------------------------------------------
    A----------------------------------------------------------------------------
    E--------------------------------------------------------------------------
    
    G---1717171717171717--1919191919191919-----------------------------------
    D--------------------------------------2121212121212121---------------------
    A----------------------------------------------------------------------------
    E--------------------------------------------------------------------------
    
    Verse
    G----------------------------------------------------------------------------
    D---------3---------------3-------------------3--------------------------------
    A-----3/5---3/5-0/3----3/5---0/3-----------3/5---3/5-0/3--------3/5--5/6666666--- x4
    E-0-0---------------0-0----------3/5---0-0------------------0-0-----------------
    
    Chorus
    G-------------------------------------------------------------------------------------
    D-------8-9-1010101010-12121212-10-----------8-9-10101010-777777-888888---------------
    A--8888----------------------------12---8888------------------------------------------
    E-------------------------------------------------------------------------------------
    
    Verse
    G----------------------------------------------------------------------------
    D---------3---------------3-------------------3--------------------------------
    A-----3/5---3/5-0/3----3/5---0/3-----------3/5---3/5-0/3--------3/5--5/6666666-- x4
    E-0-0---------------0-0----------3/5---0-0------------------0-0-----------------
    
    
    G--------------------------------------------------------------------------
    D--1515151515151515----1414141414141414------------------------------------
    A-------------------------------------------1212121212121212---------------
    E-------------------------------------------------------------------------
    
    G---1717171717171717--1919191919191919-----------------------------------
    D--------------------------------------2121212121212121---------------------
    A----------------------------------------------------------------------------
    E--------------------------------------------------------------------------
    
    G-------------5555555-----22222222----------------------------------------------
    D----33333333------------------------------------------------------------------
    A----------------------------------------------------------------------------
    E--------------------------------------------------------------------------
    
    G---1717171717171717--1919191919191919-----------------------------------
    D--------------------------------------2121212121212121---------------------
    A----------------------------------------------------------------------------
    E--------------------------------------------------------------------------
    
    Solo
    G-19-17----19-17----19-17----19-17----19-17----
    D-------19-------19-------19-------19-------19-
    A----------------------------------------------
    E----------------------------------------------
    
    G-17-14----14-17-14----17-14-------------
    D-------17----------17-------17-14-(14)--
    A----------------------------------------
    E----------------------------------------
    
    G-12-10----12-10----12-10----10-------------------------------
    D-------12-------12-------12----12-10-12-10-------------------
    A-------------------------------------------10--5--3----------
    E-----------------------------------------------------3--1b2--
    
    Verse
    G----------------------------------------------------------------------------
    D---------3---------------3-------------------3--------------------------------
    A-----3/5---3/5-0/3----3/5---0/3-----------3/5---3/5-0/3--------3/5--5/6666666--- x4
    E-0-0---------------0-0----------3/5---0-0------------------0-0-----------------
    
    Chorus
    G-------------------------------------------------------------------------------------
    D-------8-9-1010101010-12121212-10-----------8-9-10101010-777777-888888---------------
    A--8888----------------------------12---8888------------------------------------------
    E-------------------------------------------------------------------------------------
    
    G---------------------------------------------
    D-----------7-8-10--(10)-10-10-10-10-9-10-/12-
    A-8-8-8-8-8-----------------------------------
    E---------------------------------------------
    
    G--------------------------------------------------------
    D-14--15-14-15-17--15-14-12--12-10----12-10-12-10--------
    A----------------------------------12-------------12-10--
    E--------------------------------------------------------
    
    G------------------------------------------------------------------
    D--------8-9-1010101010---7777777-888888----------------------------
    A--88888-------------------------------------------------------------
    E------------------------------------------------------------------
    
    G---------17-14-------------------------------
    D----------------17-15-------15----17-17-17-17-
    A--------------------17-------17-------------
    E----------------------------------------------
    
    G------------------------------------------
    D-17s19s17S15-17-15-----15----15----15-17--
    A-------------------15-----17----17--------
    E------------------------------------------
    
    G-------------------------------------------------
    D-14s12----------12-13s14-14-14S17-17-17-17-14-12-
    A-------15-12-15----------------------------------
    E-------------------------------------------------
    
    G------------------------------------------
    D-14-12-15-12------------------------------
    A-------------15-14-15-14---15-14---15-14--
    E------------------------------------------
    
    G----------------------------------------------
    D----------------------------------------------
    A--555----111---------333---------------------- x4
    E--------------111-----------------------------
    
    G----------------------------------------------
    D----------------------------------------------
    A---555--------888----------------------------- 
    E--------66----------888-----------------------
    
    G----------------------------------------------
    D----------------------------------------------
    A---555--------8808---------------------------- x2
    E--------66----------888-----------------------
    
    G----------------------------------------------
    D----------------------------------------------
    A---555--------888--------------5-------------- 
    E--------66----------888-----------------------
     
  18. Schmuddelfutz

    Schmuddelfutz Registrierter Benutzer

    Im Board seit:
    24.12.05
    Zuletzt hier:
    24.11.12
    Beiträge:
    792
    Ort:
    Hamburg
    Zustimmungen:
    2
    Kekse:
    478
    Erstellt: 01.09.06   #18
  19. Artus

    Artus Registrierter Benutzer

    Im Board seit:
    28.04.06
    Zuletzt hier:
    10.03.13
    Beiträge:
    716
    Zustimmungen:
    0
    Kekse:
    271
    Erstellt: 07.09.06   #19
    zur vervollständigung noch die power tab version:
     

    Anhänge:

Die Seite wird geladen...

mapping