Deep Purples Ted the mechanic(intro)

M
Maxi
Registrierter Benutzer
Zuletzt hier
02.01.22
Registriert
04.09.05
Beiträge
4.004
Kekse
5.790
Hi Leute,

ich möchte das lied mit meiner Band spielen aber ich bekomme dieses kack intro nicht hin, ich weiß nicht mal wie das gehen soll.
Ich hab leider kein Soundbeispiel aber der der das lied kennt weiß was ich meine....
Tabs gibts ums verecken keine :-D
Würde mich freuen wenn mir dafür jemand tabs geben könnte(wegen mir auch noten),
ausserdem müsste mir mal jemand erklären wie man das spielt , auch wenn ich die tabs dann habe :-d!
das solo interessiert mich auch aber das bekomm ich im notfall auch selbst hin....

MFG: Maxi
 
Eigenschaft
 
36 cRaZyFiSt
36 cRaZyFiSt
Registrierter Benutzer
Zuletzt hier
25.03.21
Registriert
21.08.04
Beiträge
5.962
Kekse
5.446
Ort
Regensburg
nur das Intro?


---------------------------------------------------------
---------------------------------------------------------
---------------------------------------------------------
-----2-----2-1-0--2-----2-2------2-----2-1-0-------------
----------------------------------------------2--0-2-0-2-
--0-----0------------0--------0-----0--------------------



--------------------------------------------------------
--------------------------------------------------------
--------------------------------------------------------
-----2-----2-1-0--2-----2-2---2-2-1--0----------------2-
----------------------------------------4--3--2-------2-
--0-----0------------0---------------------------5--3-0-
 
M
Maxi
Registrierter Benutzer
Zuletzt hier
02.01.22
Registriert
04.09.05
Beiträge
4.004
Kekse
5.790
bei purple höhrt sich das so seltsam naja mal probiern ,thx!
 
M
Maxi
Registrierter Benutzer
Zuletzt hier
02.01.22
Registriert
04.09.05
Beiträge
4.004
Kekse
5.790
wenn du das solo hast postet das bitte auch(oder ein link), währe sehr lieb :-d!
 
36 cRaZyFiSt
36 cRaZyFiSt
Registrierter Benutzer
Zuletzt hier
25.03.21
Registriert
21.08.04
Beiträge
5.962
Kekse
5.446
Ort
Regensburg

--------------------------5-5~|-----------------------|
------------------------------|-----------------------|
----4b-4b---------------------|------7/--4b-----------|
--------------x-x-x-x-x-x-----|-----------------------|
------------------------------|--------x---x----------|
------------------------------|--------------x--------|



----10-------9-7p5---------|----------------------------------|
-------------------8p5-7h8-|--9p5-----------------------------|
---------------------------|------6---9p7-------------------5~|
---------------------------|--------9-----9p6-8p6-7p6-5/6-----|
---------------------------|------------------------------7---|
---------------------------|----------------------------------|



-------------------------------------|-----------------------------12-|
------------------8--------------5-5-|--------8-9-10-11-12------------|
-------------------------------------|----6----------------12b--------|
-------------------------------------|------9-------------------------|
------x-x-x-x-x-x----x-x-x-x-x-x-----|--------------------------------|
-------------------------------------|--------------------------------|



---------12-10---------------------------10----|
---------------12p11p10p9-------10h11h12----12p|
--------------------------12h13----------------|
-----------------------------------------------|
-----------------------------------------------|
-----------------------------------------------|



-------------------------------------18b--|
--11p10p9---------------------------------|
----------12---------------13/------------|
-------------14p12p9----------------------|
---------------------11-------------------|
------------------------12----------------|



--17-x-15b-15-x-12-x-10b-14----------------|
----------------------------14-12-11-10----|
----------------------------------------12-|
-------------------------------------------|
-------------------------------------------|
-------------------------------------------|



------------------------------------|----------------------------------|
------------------------------------|----------------------------------|
--12/13-9---------------------------|----------------------------11b---|
----------9-12-11-9-----------------|----------------------------------|
--------------------13-12----9b-----|----------------------------------|
--------------------------12--------|----12-10-12~---x-x-x-x-x-x-------|



-----------------------------|--------------------------------|
-----------------------------|--------------------------------|
------11-9------------12-----|--------15b------16-14----13----|
-----------11-9-5r--------14-|--------------14-------14----14-|
-----------------------------|--------------------------------|
-----------------------------|--------------------------------|



-----------------------------------------------------|
-----------------------------------------------------|
--12-13----------------------------------------------|
--------14-11----14----14p12-------------------------|
--------------14----14-------14-14-12----12----10-11-|
--------------------------------------12----12-------|



----------------------------------------|----------------------------|
----------------------------------------|----------------------------|
----------------------------------------|----------------------------|
----------------------------------------|----------------------------|
--------------------10--------------7-7-|----5-----------------------|
--12~---x-x-x-x-x-x-----x-x-x-x-x-x-----|------5-7-7-4-5-5-3-3b----0-|
 
M
Maxi
Registrierter Benutzer
Zuletzt hier
02.01.22
Registriert
04.09.05
Beiträge
4.004
Kekse
5.790
die zwei schnellen stellen muss ich noch üben :-D!
Naja kann mir mal einer genau sagen wie ich das behinderte intro spielen soll damit sich das wie Purple anhöhrt?
 
P
Pablo El Grande
Registrierter Benutzer
Zuletzt hier
25.08.10
Registriert
10.08.05
Beiträge
466
Kekse
238
Maxi schrieb:
die zwei schnellen stellen muss ich noch üben :-D!
Naja kann mir mal einer genau sagen wie ich das behinderte intro spielen soll damit sich das wie Purple anhöhrt?

Ja, ich:)

Die Technik nennt sich Chicken-Picking.
Beim Intro musste Dein Plek weglegen und mit dem Daumen und dem Mittelfinger anschlagen.
Du schlägst mit dem Daumen an, aber dämpfst gleichzeitig mit dem Mittelfinger ab, bzw. andersrum, wenn du mit dem Mittelfinger anschlägst...kapiert:rolleyes:

Probiers mal aus, das gibt diesen flageoletartigen Ton...
 
M
Maxi
Registrierter Benutzer
Zuletzt hier
02.01.22
Registriert
04.09.05
Beiträge
4.004
Kekse
5.790
ahhhh das ist so geil, danke!
 
P
Pablo El Grande
Registrierter Benutzer
Zuletzt hier
25.08.10
Registriert
10.08.05
Beiträge
466
Kekse
238
Maxi schrieb:
ahhhh das ist so geil, danke!

Würd mich mal interessieren, wies klingt, wenn Du das Ding kannst, ich weiss zwar, wie man den Sound erzeugt, aber spielen kann ich das Ding nicht:)
 
M
Maxi
Registrierter Benutzer
Zuletzt hier
02.01.22
Registriert
04.09.05
Beiträge
4.004
Kekse
5.790
ok hab morgen bandprobe, da liegt mein micro dann nehme ich's mal auf vorausgesetzt ich find heute abend neben dem solo noch zeit für das intro, den das kann ich mal noch ne Woche aufschieben, aber wenns solo feht ist immer schlimm :-d!
aber ich versuchs, bin aber nicht so ein super gitarrist (spiele halt nicht so lange)! :-D1
sodele bis demnäcsht!
 
M
Maxi
Registrierter Benutzer
Zuletzt hier
02.01.22
Registriert
04.09.05
Beiträge
4.004
Kekse
5.790
du must es ja wissen :-D"!
 
P
Pablo El Grande
Registrierter Benutzer
Zuletzt hier
25.08.10
Registriert
10.08.05
Beiträge
466
Kekse
238

Ähnliche Themen


Neue Themen

Unser weiteres Online-Angebot:
Bassic.de · Deejayforum.de · Sequencer.de · Clavio.de · Guitarworld.de · Recording.de

Musiker-Board Logo
Oben