Intro von Boat on the river

von Richy11, 02.03.05.

  1. Richy11

    Richy11 Registrierter Benutzer

    Im Board seit:
    22.02.05
    Zuletzt hier:
    21.07.06
    Beiträge:
    5
    Zustimmungen:
    0
    Kekse:
    10
    Erstellt: 02.03.05   #1
    :rolleyes: Hi an alle Gitarristen,
    bin neu im Board und bis jetzt hocherfreut. Auf viele Fragen habe ich schon eine Antwort gefunden. Jetzt aber eine neue:
    Kennt jemand das Intro von "Boat on the river" von Styx. Der Song ist ja recht simpel, aber das Intro bekomme ich nicht so richtig raus. Ich glaube auf der CD, die ich leider nicht habe, ist es mit Mandoline gespielt. Hat es mal jemand auf Gitarre tranponiert oder die Tabs irgendwo gefunden.
    Ohne Intro ist das Lied nur die Hälfte wert.

    Grüße Richy11
     
  2. Zero-G

    Zero-G Registrierter Benutzer

    Im Board seit:
    09.02.05
    Zuletzt hier:
    7.10.06
    Beiträge:
    791
    Ort:
    Berlin, Spandau
    Zustimmungen:
    3
    Kekse:
    22
  3. Richy11

    Richy11 Threadersteller Registrierter Benutzer

    Im Board seit:
    22.02.05
    Zuletzt hier:
    21.07.06
    Beiträge:
    5
    Zustimmungen:
    0
    Kekse:
    10
    Erstellt: 02.03.05   #3
    Danke Zero-G für die schnelle Antwort.
    Aber die Datei ist im GP4-Format und die kann mein PC nicht lesen.
     
  4. Zero-G

    Zero-G Registrierter Benutzer

    Im Board seit:
    09.02.05
    Zuletzt hier:
    7.10.06
    Beiträge:
    791
    Ort:
    Berlin, Spandau
    Zustimmungen:
    3
    Kekse:
    22
    Erstellt: 02.03.05   #4
    Bei google: einfach eingeben "boat on the river" +tabs (genau so)
     
  5. Richy11

    Richy11 Threadersteller Registrierter Benutzer

    Im Board seit:
    22.02.05
    Zuletzt hier:
    21.07.06
    Beiträge:
    5
    Zustimmungen:
    0
    Kekse:
    10
    Erstellt: 04.03.05   #5
    Nochmals Danke für den Tipp

    aber: die bekannten Sides führen zwar die Harmonien, aber nicht das Intro. Soweit war ich auch schon vorher. Auf den anderen Sides habe ich mir nur zwei Vierendateien und einen Dialer eingefangen, aber kein Intro. Für mich als Amateur sind die Tabs des Intros wohl zu schwierig, aber dass sich die Cracks des Forums da so vornehm zurückhalten ...
    Wäre doch 'ne Herausforderung (ich spiel's überigens in e)
     
  6. zwei_welt

    zwei_welt Registrierter Benutzer

    Im Board seit:
    01.01.05
    Zuletzt hier:
    28.09.06
    Beiträge:
    28
    Ort:
    Berlin
    Zustimmungen:
    0
    Kekse:
    10
    Erstellt: 04.03.05   #6
    musst aber kein '+' angeben ! (sorry für die klugschei....)

    Ansonsten kannst du dir das Ding doch einfach raushören oder ?
    Ich kenne das Intro jetzt nicht, aber könnte mir vorstellen dass es sich im gleichen Kadenz wie der Rest des Stückes aufhält (Es sei denn, es ist technisch hart zu meistern, dann würde ich alles zurücknehmen...:))
     
  7. Birdseye

    Birdseye Registrierter Benutzer

    Im Board seit:
    08.01.05
    Zuletzt hier:
    2.03.12
    Beiträge:
    89
    Ort:
    Stuttgart
    Zustimmungen:
    0
    Kekse:
    31
    Erstellt: 04.03.05   #7
    biddeschön :)

    E||------8--8-------8--8-------8--8-------8--8--|--------10-10-------10-10-------10-10-------10-10-|
    B||--10--10-10------10-10------10-10------10-10-|--------10-10-------10-10-------10-10-------10-10-|
    G||--9---9--9-----9-9--9-----9-9--9-----9-9--9--|-----10-10-10----10-10-10----10-10-10----10-10-10-|
    D||--10--------10---------10---------10---------|--12----------12----------12----------12----------|
    A||---------------------------------------------|--------------------------------------------------|
    E||---------------------------------------------|--------------------------------------------------|



    -------8--8-------8--8-------8--8-------8--8--|------7-7-----7-7-----7-7-----7-7-|
    -------10-10------10-10------10-10------10-10-|------7-7-----7-7-----7-7-----7-7-|
    -----9-9--9-----9-9--9-----9-9--9-----9-9--9--|----8-8-8---8-8-8---8-8-8---8-8-8-|
    --10---------10---------10---------10---------|--9-------9-------9-------9-------|
    ----------------------------------------------|----------------------------------|
    ----------------------------------------------|----------------------------------|



    -------8--8-------8--8-------8--8-------8--8--|--------10-10-------10-10-------10-10-------10-10-|
    -------10-10------10-10------10-10------10-10-|--------10-10-------10-10-------10-10-------10-10-|
    -----9-9--9-----9-9--9-----9-9--9-----9-9--9--|-----10-10-10----10-10-10----10-10-10----10-10-10-|
    --10---------10---------10---------10---------|--12----------12----------12----------12----------|
    ----------------------------------------------|--------------------------------------------------|
    ----------------------------------------------|--------------------------------------------------|



    -------8--8-------8--8-------8--8-------8--8--|------7-7-----7-7-----7-7-----7-7-|-----5-5----5-5----5-5----5--|
    -------10-10------10-10------10-10------10-10-|------7-7-----7-7-----7-7-----7-7-|-----5-5----5-5-5--5-5----5--|
    -----9-9--9-----9-9--9-----9-9--9-----9-9--9--|----8-8-8---8-8-8---8-8-8---8-8-8-|--5--5-5--5-5-5-5--5-5--5-5--|
    --10---------10---------10---------10---------|--9-------9-------9-------9-------|--7----7--7-7---7----7--7-7--|
    ----------------------------------------------|----------------------------------|--7--------------------------|
    ----------------------------------------------|----------------------------------|--5--------------------------|


    -----5-5----5-5----5-5----5--|
    -----5-5----5-5-5--5-5----5--|
    --5--5-5--5-5-5-5--5-5--5-5--|
    --7----7--7-7---7----7--7-7--|
    --7--------------------------|
    --5--------------------------|
     
  8. Richy11

    Richy11 Threadersteller Registrierter Benutzer

    Im Board seit:
    22.02.05
    Zuletzt hier:
    21.07.06
    Beiträge:
    5
    Zustimmungen:
    0
    Kekse:
    10
    Erstellt: 04.03.05   #8
    Also
    1. mit Raushören ist für mich etwas schwierig, da ich den Song nicht auf CD habe und nur aus dem Kopf klappte nicht. Außerdem hätte ich diesen verdammten maj7-Akkord (richtig?) wahrscheinlich eh nicht erkannt. Deshalb:
    2. Dickes Dankeschön an Birdseye für die Mühe.
    Ich hab's ausprobiert und es hört sich sogar bei mir ganz authentisch an. Nur in "a" isses etwas hoch für mich, aber einen Ton tiefer krieg ich noch hin.

    Das Forum ist 'ne geile Sache. Werd versuchen, mich auch aktiv zu beteiligen und nicht nur zu lutschen.

    Der Newcomer Richy11
     
Die Seite wird geladen...

mapping