deutschlandlied für gitarre?!

von deeper_purple, 20.09.05.

  1. deeper_purple

    deeper_purple Registrierter Benutzer

    Im Board seit:
    21.12.04
    Zuletzt hier:
    29.12.11
    Beiträge:
    920
    Zustimmungen:
    0
    Kekse:
    418
    Erstellt: 20.09.05   #1
    huhu... ich würde gerne unsere schöne nationalhymne auf gitarre lernen... finde aber nirgends tabs... kann mir jemand helfen?!


    danke
     
  2. iron_net

    iron_net Registrierter Benutzer

    Im Board seit:
    17.07.04
    Zuletzt hier:
    27.11.16
    Beiträge:
    1.624
    Ort:
    Offenbach
    Zustimmungen:
    11
    Kekse:
    1.060
    Erstellt: 20.09.05   #2
    Die Melodie? Die is doch nich schwer, kannste Dir selbst zusammen suchen...ist nur ein tonleiterfremder Ton...
     
  3. Chillkröte86

    Chillkröte86 Registrierter Benutzer

    Im Board seit:
    18.02.05
    Zuletzt hier:
    17.11.11
    Beiträge:
    453
    Ort:
    Dortmund
    Zustimmungen:
    0
    Kekse:
    351
    Erstellt: 20.09.05   #3
    falls du guitar pro hast..dann bitteschön
     

    Anhänge:

  4. deeper_purple

    deeper_purple Threadersteller Registrierter Benutzer

    Im Board seit:
    21.12.04
    Zuletzt hier:
    29.12.11
    Beiträge:
    920
    Zustimmungen:
    0
    Kekse:
    418
    Erstellt: 20.09.05   #4
    unsere hymne besteht auch noch aus mehr material als "einigkeit und recht und freiheit..." ;)

    mein problem is der teil ab "blüh im glanze dieses glückes"
     
  5. deeper_purple

    deeper_purple Threadersteller Registrierter Benutzer

    Im Board seit:
    21.12.04
    Zuletzt hier:
    29.12.11
    Beiträge:
    920
    Zustimmungen:
    0
    Kekse:
    418
    Erstellt: 20.09.05   #5
    thx chillkröte
     
  6. Maxi

    Maxi Registrierter Benutzer

    Im Board seit:
    04.09.05
    Zuletzt hier:
    3.12.16
    Beiträge:
    3.849
    Zustimmungen:
    350
    Kekse:
    5.099
    Erstellt: 20.09.05   #6
    also irgendwer hat doch bestimmt das Deutsche Gesetzbuch, zumindest vieleicht ein etwas älterer mitbürger.
    Nun sieht man auf die Rückseite dieses Buches und TATA da ist ja unsere schöne nationalhymne in Noten :-D1

    MFG: Maxi
     
  7. SeSe

    SeSe Registrierter Benutzer

    Im Board seit:
    02.02.05
    Zuletzt hier:
    4.01.15
    Beiträge:
    123
    Zustimmungen:
    0
    Kekse:
    58
    Erstellt: 20.09.05   #7
  8. deeper_purple

    deeper_purple Threadersteller Registrierter Benutzer

    Im Board seit:
    21.12.04
    Zuletzt hier:
    29.12.11
    Beiträge:
    920
    Zustimmungen:
    0
    Kekse:
    418
    Erstellt: 20.09.05   #8
    hab aber kein gesetzbuch... zu den älteren mitbürgern gehöre ich nicht ;)
     
  9. msoada

    msoada Mod Emeritus Ex-Moderator

    Im Board seit:
    08.05.05
    Zuletzt hier:
    21.09.15
    Beiträge:
    4.498
    Ort:
    Belgrad
    Zustimmungen:
    62
    Kekse:
    5.984
    Erstellt: 20.09.05   #9
    Das kann amn auch gut als Punk version Covern, wir hams gemacht. Habens aber nie Live gespielt. Weil es Leute gibt die da was komishces denken.
     
  10. Marinus vd Lubbe

    Marinus vd Lubbe Registrierter Benutzer

    Im Board seit:
    26.02.05
    Zuletzt hier:
    16.09.13
    Beiträge:
    135
    Zustimmungen:
    0
    Kekse:
    75
    Erstellt: 20.09.05   #10
    Die Nationalhymne ist aber nur die dritte Strophe vom Deutschlandlied. Das fängt nämlich an mit der Strophe "Von der Maas bis an die Memel, von der Etsch bis an den Belt, Deutschland Deutschland über alles, über alles in der Welt..."
     
  11. SickSoul

    SickSoul HCA - Gitarren Ex-Moderator HCA

    Im Board seit:
    26.10.04
    Zuletzt hier:
    3.12.16
    Beiträge:
    6.400
    Ort:
    Irgendwo im Nirgendwo
    Zustimmungen:
    1.777
    Kekse:
    39.356
    Erstellt: 20.09.05   #11
    Jo und das wird aus historischen Gründen auch nicht mehr gesungen. Ist aber eigentlich ziemlich egal, da es um die Noten/Tabulatur für Gitarre geht und nicht um den Text. Trotzdem schön, dass du in Geschichte aufgepasst hast ;)

    MfG
     
  12. Hans_3

    Hans_3 High Competence Award HCA

    Im Board seit:
    09.11.03
    Beiträge:
    16.142
    Zustimmungen:
    1.119
    Kekse:
    49.592
    Erstellt: 20.09.05   #12
    Falls es jemanden interessiert: Die Musik stammt aus Joseph Haydns (1732-1809) 1797 komponiertem "Kaiser-Quartett"

    Falls es jemanden beruhigt: Der Text der 1. Strophe ruft heute ungute Erinnerungen auf wg. dem Missbrauch durch die Nazis ab 1933. Der Text hatte aber bei seiner Entstehung (Heinrich Hoffmann von Fallersleben / 1798-1874) einen ganz anderen Kontext: Damals war "Deutschland" noch in unendliche viele Provinzen, KLeinstaaten etc. zersplittert. Der Text "bittet" sozusagen um Einigkeit und Zusammenhalt und darum, kleinliche Interessen hinten anzustellen (..."über alles"...). Hat ja denn auch irgendwann geklappt...
     
  13. -Ape-

    -Ape- Registrierter Benutzer

    Im Board seit:
    14.11.04
    Zuletzt hier:
    2.12.16
    Beiträge:
    1.913
    Ort:
    Hessisch Sibirien, MKK
    Zustimmungen:
    42
    Kekse:
    1.988
    Erstellt: 20.09.05   #13
    Und dann lernt man sogar noch was Geschichtliches, im ernst, ich liebe dieses Board^^.

    Aber hat niemand die Noten oder Tabs für die Deutsche Hymne? Hab leider kein Guitar-Pro°

    Gruz Peter
     
  14. Dude Boogie G.

    Dude Boogie G. Registrierter Benutzer

    Im Board seit:
    19.09.05
    Zuletzt hier:
    18.03.06
    Beiträge:
    13
    Zustimmungen:
    0
    Kekse:
    47
    Erstellt: 20.09.05   #14
    schöne Nationalhymne... meinst du Star sprangled banner oder die Südstaatenhymne?
     
  15. Ghost_fool

    Ghost_fool Registrierter Benutzer

    Im Board seit:
    08.09.04
    Zuletzt hier:
    26.12.11
    Beiträge:
    89
    Ort:
    Koblenz, RLP
    Zustimmungen:
    0
    Kekse:
    10
    Erstellt: 21.09.05   #15
    so hier nochmal für die leute ohne gp

    Code:
                                                         German National Anthem                              
    
    
                                                                            J. Haydn
    Trumpet
    -
    
    
    
                                                                               
    E||----------------------|------------------------|-----------------------|
    B||----------------------|------------------------|-----------------------|
    G||----------------------|------------------------|--9----7---------------|
    D||--5------7--9----7----|--10----9----7--4--5----|------------10----9----|
    A||----------------------|------------------------|-----------------------|
    E||----------------------|------------------------|-----------------------|
    
    
                                                                           
    ----------------------|----------------------|------------------------|
    ----------------------|----------------------|------------------------|
    -------------7--------|----------------------|------------------------|
    --7----9--5-----------|--5------7--9----7----|--10----9----7--4--5----|
    ----------------------|----------------------|------------------------|
    ----------------------|----------------------|------------------------|
    
    
                                                                           
    -----------------------|----------------------|-----------------------|
    -----------------------|----------------------|-----------------------|
    --9----7---------------|-------------7--------|--9------7--7--5--4----|
    ------------10----9----|--7----9--5-----------|-----------------------|
    -----------------------|----------------------|-----------------------|
    -----------------------|----------------------|-----------------------|
    
    
                                                                                  
    -----------------------|-----------------------------|----------------------||
    -----------------------|-----------------------------|----------------------||
    --7------5--5--4--2----|-----------------------------|----------------------||
    -----------------------|--7----9--10--12--14--10--7--|--5----9--7--5--------||
    -----------------------|-----------------------------|----------------------||
    -----------------------|-----------------------------|----------------------||
     
  16. nichtgutaberlaut

    nichtgutaberlaut Registrierter Benutzer

    Im Board seit:
    04.10.04
    Zuletzt hier:
    11.12.14
    Beiträge:
    293
    Ort:
    Ruhrpott
    Zustimmungen:
    3
    Kekse:
    74
    Erstellt: 21.09.05   #16
    Du bist nicht zufällig im real life Sarah Connor ?

    :p
     
  17. Cudo

    Cudo Mitgliedschaft beendet

    Im Board seit:
    11.12.04
    Zuletzt hier:
    10.01.06
    Beiträge:
    378
    Zustimmungen:
    2
    Kekse:
    409
    Erstellt: 21.09.05   #17
    Hallo Leute,
    habe mir kurz aus einem Midifile einen Klavierauszug gebastelt. Der müsste für den Hausgebrauch eigentlich reichen. Mit Tab's kann ich leider nicht dienen, da ich keine direkte Verbindung zu Tabiland habe.
    Als Zugeständnis an die Gitarrenlobby habe ich das Ganze auch mal nach E Dur transponiert. Zudem gibt es noch Chordsymbols.


    CIAO
    CUDO
     

    Anhänge:

  18. deeper_purple

    deeper_purple Threadersteller Registrierter Benutzer

    Im Board seit:
    21.12.04
    Zuletzt hier:
    29.12.11
    Beiträge:
    920
    Zustimmungen:
    0
    Kekse:
    418
    Erstellt: 21.09.05   #18
    danke für den ganzen historischen hintergrund... gibt bestimmt einige die das interessiert... im gitarrenforum... ;)

    das offiziell nur die dritte strophe gesungen wird ist mir klar, aber ich brauchte die melodie und die is ja in allen strophen gleich, deswegen... hab's nich weiter spezifiziert... danke an alle... ich hab sie jetzt drauf, von der maas bis an die memel kann ich die hymne :great:
     
  19. wonder1908

    wonder1908 Gesperrter Benutzer

    Im Board seit:
    18.06.05
    Zuletzt hier:
    28.10.06
    Beiträge:
    185
    Zustimmungen:
    0
    Kekse:
    116
    Erstellt: 21.09.05   #19
    Ghost fool's Code eingabe hat wohl nicht ganz geklappt.

    Hier nochmals das Tab ohne Verschiebungen.

    Code:
    E||----------------------|------------------------|-----------------------|
    B||----------------------|------------------------|-----------------------|
    G||----------------------|------------------------|--9----7---------------|
    D||--5------7--9----7----|--10----9----7--4--5----|------------10----9----|
    A||----------------------|------------------------|-----------------------|
    E||----------------------|------------------------|-----------------------|
     
     
     
    ----------------------|----------------------|------------------------|
    ----------------------|----------------------|------------------------|
    -------------7--------|----------------------|------------------------|
    --7----9--5-----------|--5------7--9----7----|--10----9----7--4--5----|
    ----------------------|----------------------|------------------------|
    ----------------------|----------------------|------------------------|
     
     
     
    -----------------------|----------------------|-----------------------|
    -----------------------|----------------------|-----------------------|
    --9----7---------------|-------------7--------|--9------7--7--5--4----|
    ------------10----9----|--7----9--5-----------|-----------------------|
    -----------------------|----------------------|-----------------------|
    -----------------------|----------------------|-----------------------|
     
     
     
    -----------------------|-----------------------------|----------------------||
    -----------------------|-----------------------------|----------------------||
    --7------5--5--4--2----|-----------------------------|----------------------||
    -----------------------|--7----9--10--12--14--10--7--|--5----9--7--5--------||
    -----------------------|-----------------------------|----------------------||
    -----------------------|-----------------------------|----------------------|| 

    Gruß
    Wonder
     
  20. Dude Boogie G.

    Dude Boogie G. Registrierter Benutzer

    Im Board seit:
    19.09.05
    Zuletzt hier:
    18.03.06
    Beiträge:
    13
    Zustimmungen:
    0
    Kekse:
    47
    Erstellt: 21.09.05   #20
    Nun der charakteristische anfang ist ja echt einfach, den kann ich dafür dann von der Oder bis zur Neiße...
     
Die Seite wird geladen...

mapping