Die Toten Hosen - Weißes Rauschen

von gremlin17, 09.02.07.

  1. gremlin17

    gremlin17 Registrierter Benutzer

    Im Board seit:
    23.11.06
    Zuletzt hier:
    19.03.11
    Beiträge:
    114
    Ort:
    Dresden | Schwedt
    Zustimmungen:
    0
    Kekse:
    31
    Erstellt: 09.02.07   #1
    Hallo,

    ich würde gerne das Intro von diesem Song spielen, finde jedoch die tabs nirgends im netz.
    Ich hoffe jemand kann mir da weiter helfen ;)

    MfG
     
  2. EugenesTrickBag

    EugenesTrickBag Registrierter Benutzer

    Im Board seit:
    09.02.07
    Zuletzt hier:
    24.01.15
    Beiträge:
    31
    Zustimmungen:
    0
    Kekse:
    10
    Erstellt: 10.02.07   #2
    S S S S S S S S S S S S S S S S
    E||--------------------------------------------------------------------------|
    B||--------------------------------------------------------------------------|
    G||--------------------------------------------------------------------------|
    D||--7-----------------------------------------7---7-7-7---7-----------------|
    A||--5-----------------------------------------5---5-5-5---5-8-8---8-8-8---8-|
    E||----------------------------------------------------------6-6---6-6-6---6-|


    visit our Band ::: [VorLaut DieBand] :::::
    S S S S S S S S S S S S S S S S
    -------------------------------------------------------------------------------|
    -------------------------------------------------------------------------------|
    -------------------------------------------------------------------------------|
    -------------------------------------------------------------------------------|
    --3----------------------------------------------3---3-3-3-----------0-1-0-----|
    --1----------------------------------------------1---1-1-1---1-3-1-3-------3-1-|


    :::: Die Toten Hosen // Homepage :::::
    S S S S S S S S S S S S S S S S
    ----------------------------------------------------------------|
    ----------------------------------------------------------------|
    ----------------------------------------------------------------|
    --7-------------------------------7---7-7-7---7-----------------|
    --5-------------------------------5---5-5-5---5-8-8---8-8-8---8-|
    ------------------------------------------------6-6---6-6-6---6-|


    S S S S S S S S S S S S S S S S S S S S S S S S S S S S S S S S
    ----------------------------------|----------------------------------|
    ----------------------------------|----------------------------------|
    ----------------------------------|----------------------------------|
    ----------------------------------|--7-7---7-7-7---7-----------------|
    --3-3---3-3-3-----------0-1-0-----|--5-5---5-5-5---5-8-8---8-8-8---8-|
    --1-1---1-1-1---1-3-1-3-------3-1-|------------------6-6---6-6-6---6-|


    S S S S S S S S S S S S S S S S S S S S S S S S S S S S S S S S
    ----------------------------------|----------------------------------|
    ----------------------------------|----------------------------------|
    ----------------------------------|----------------------------------|
    ----------------------------------|--7-7---7-7-7---7-----------------|
    --3-3---3-3-3-----------0-1-0-----|--5-5---5-5-5---5-8-8---8-8-8---8-|
    --1-1---1-1-1---1-3-1-3-------3-1-|------------------6-6---6-6-6---6-|


    S S S S S S S S S S S S S S S S S S S S S S S S S S S S S S S S
    ----------------------------------|----------------------------------|
    ----------------------------------|----------------------------------|
    ----------------------------------|----------------------------------|
    ----------------------------------|--7-7---7-7-7---7-----------------|
    --3-3---3-3-3-----------0-1-0-----|--5-5---5-5-5---5-8-8---8-8-8---8-|
    --1-1---1-1-1---1-3-1-3-------3-1-|------------------6-6---6-6-6---6-|


    S S S S S S S S S S S S S S S S S S S S S S S S S S S S S S S S
    ----------------------------------|----------------------------------|
    ----------------------------------|----------------------------------|
    ----------------------------------|----------------------------------|
    ----------------------------------|--7-7---7-7-7---7-----------------|
    --3-3---3-3-3-----------0-1-0-----|--5-5---5-5-5---5-8-8---8-8-8---8-|
    --1-1---1-1-1---1-3-1-3-------3-1-|------------------6-6---6-6-6---6-|


    S S S S S S S S S S S S S S S S E E S S S Q S E E
    ----------------------------------|---------------------------|
    ----------------------------------|---------------------------|
    ----------------------------------|--7--7--5-7-5-7----7-7--7--|
    ----------------------------------|--7--7--5-7-5-7----7-7--7--|
    --3-3---3-3-3-----------0-1-0-----|--5--5--5-5-5-5----5-5--5--|
    --1-1---1-1-1---1-3-1-3-------3-1-|---------------------------|


    E E E E E E E E E E S S S Q S E E
    --------------------------|---------------------------|
    --------------------------|---------------------------|
    --5--5--5--5--------------|--7--7--5-7-5-7----7-7--7--|
    --5--5--5--5--5--5--5--5--|--7--7--5-7-5-7----7-7--7--|
    --3--3--3--3--5--5--5--5--|--5--5--5-5-5-5----5-5--5--|
    --------------3--3--3--3--|---------------------------|


    E E E E E E E E S S S S S S S S S S S S S S S S
    --------------------------|----------------------------------|
    --------------------------|----------------------------------|
    --5--5--5--5--------------|----------------------------------|
    --5--5--5--5--5--5--5--5--|--7-7---7-7-7---7-----------------|
    --3--3--3--3--5--5--5--5--|--5-5---5-5-5---5-8-8---8-8-8---8-|
    --------------3--3--3--3--|------------------6-6---6-6-6---6-|


    S S S S S S S S S S S S S S S S S S S S S S S S S S S S S S S S
    ----------------------------------|----------------------------------|
    ----------------------------------|----------------------------------|
    ----------------------------------|----------------------------------|
    ----------------------------------|--7-7---7-7-7---7-----------------|
    --3-3---3-3-3-----------0-1-0-----|--5-5---5-5-5---5-8-8---8-8-8---8-|
    --1-1---1-1-1---1-3-1-3-------3-1-|------------------6-6---6-6-6---6-|


    S S S S S S S S S S S S S S S S S S S S S S S S S S S S S S S S
    ----------------------------------|----------------------------------|
    ----------------------------------|----------------------------------|
    ----------------------------------|----------------------------------|
    ----------------------------------|--7-7---7-7-7---7-----------------|
    --3-3---3-3-3-----------0-1-0-----|--5-5---5-5-5---5-8-8---8-8-8---8-|
    --1-1---1-1-1---1-3-1-3-------3-1-|------------------6-6---6-6-6---6-|


    S S S S S S S S S S S S S S S S E E E E E E E E
    ----------------------------------|--------------------------|
    ----------------------------------|--------------------------|
    ----------------------------------|-----7-----7-----8-----8--|
    ----------------------------------|-----7-----7-----8-----8--|
    --3-3---3-3-3-----------0-1-0-----|-----5-----5-----6-----6--|
    --1-1---1-1-1---1-3-1-3-------3-1-|--------------------------|


    E E E E E E S S S S E E E E E E E E
    ----------------------------|--------------------------|
    ----------------------------|--------------------------|
    -----7-----7-----8----------|-----7-----7-----8-----8--|
    -----7-----7-----8----------|-----7-----7-----8-----8--|
    -----5-----5-----6--3-5-3-5-|-----5-----5-----6-----6--|
    ----------------------------|--------------------------|


    E E E E E E E E E E S S S Q S E E
    --------------------------|---------------------------|
    --------------------------|---------------------------|
    -----7-----7-----8-----8--|--7--7--5-7-5-7----7-7--7--|
    -----7-----7-----8-----8--|--7--7--5-7-5-7----7-7--7--|
    -----5-----5-----6-----6--|--5--5--5-5-5-5----5-5--5--|
    --------------------------|---------------------------|


    E E E E E E E E E E S S S Q S E E
    --------------------------|---------------------------|
    --------------------------|---------------------------|
    --5--5--5--5--------------|--7--7--5-7-5-7----7-7--7--|
    --5--5--5--5--5--5--5--5--|--7--7--5-7-5-7----7-7--7--|
    --3--3--3--3--5--5--5--5--|--5--5--5-5-5-5----5-5--5--|
    --------------3--3--3--3--|---------------------------|


    E E E E E E E E E E S S S S E E S S S S
    --------------------------|------------------------------|
    --------------------------|------------------------------|
    --5--5--5--5--------------|------------------------------|
    --5--5--5--5--5--5--5--5--|--8--8--8-8-8-8-8--8--8-8-8-8-|
    --3--3--3--3--5--5--5--5--|--8--8--8-8-8-8-8--8--8-8-8-8-|
    --------------3--3--3--3--|--6--6--6-6-6-6-6--6--6-6-6-6-|


    E E S S S S E E S S S S Q Q Q Q Q Q Q Q
    ------------------------------|----------------------|----------------------|
    ------------------------------|----------------------|----------------------|
    ------------------------------|--7----L----L----L----|--L----L----L----L----|
    --5--5--5-5-5-5-5--5--5-5-5-5-|--7----L----L----L----|--L----L----L----L----|
    --5--5--5-5-5-5-5--5--5-5-5-5-|--5----L----L----L----|--L----L----L----L----|
    --3--3--3-3-3-3-3--3--3-3-3-3-|----------------------|----------------------|


    Q Q Q Q
    ----------------------|-------|-------|-------|-------|-------|-------|-------|
    ----------------------|-------|-------|-------|-------|-------|-------|-------|
    --L----L----L----L----|-------|-------|-------|-------|-------|-------|-------|
    --L----L----L----L----|-------|-------|-------|-------|-------|-------|-------|
    --L----L----L----L----|-------|-------|-------|-------|-------|-------|-------|
    ----------------------|-------|-------|-------|-------|-------|-------|-------|


    E E S S S E E Q S E E E E E E E E
    ---------------------------|--------------------------|
    ------------5-6--5---------|--------------------------|
    --7--7--5-7---------7------|--5--5--5--5--------------|
    --7--7---------------------|--5--5--5--5--5--5--5--5--|
    --5--5---------------------|--3--3--3--3--5--5--5--5--|
    ---------------------------|--------------3--3--3--3--|


    E E S S S E E Q S E E E E E E E E
    ---------------------------|--------------------------|
    ------------5-6--5---------|--------------------------|
    --7--7--5-7---------7------|--5--5--5--5--------------|
    --7--7---------------------|--5--5--5--5--5--5--5--5--|
    --5--5---------------------|--3--3--3--3--5--5--5--5--|
    ---------------------------|--------------3--3--3--3--|


    E E S S S S E E S S S S
    ------------------------------------------|
    ------------------------------------------|
    --10--10--10-10-10-10-10--10--10-10-10-10-|
    --10--10--10-10-10-10-10--10--10-10-10-10-|
    ---8---8---8--8--8--8--8---8---8--8--8--8-|
    ------------------------------------------|


    E E S S S S E E S S S S
    ------------------------------------------|-------------------||
    ------------------------------------------|-------------------||
    --12--12--12-12-12-12-12--12--12-12-12-12-|-------------------||
    --12--12--12-12-12-12-12--12--12-12-12-12-|-------------------||
    --10--10--10-10-10-10-10--10--10-10-10-10-|-------------------||
    ------------------------------------------|-------------------||

    Is es das was du meinst?
     
  3. gremlin17

    gremlin17 Threadersteller Registrierter Benutzer

    Im Board seit:
    23.11.06
    Zuletzt hier:
    19.03.11
    Beiträge:
    114
    Ort:
    Dresden | Schwedt
    Zustimmungen:
    0
    Kekse:
    31
    Erstellt: 10.02.07   #3
    Jawohl, danke! : - ))
     
Die Seite wird geladen...

mapping