Intro zu Spät

von Altobelli, 28.01.08.

  1. Altobelli

    Altobelli Registrierter Benutzer

    Im Board seit:
    26.01.08
    Zuletzt hier:
    16.02.08
    Beiträge:
    10
    Ort:
    Porta Westfalica
    Zustimmungen:
    0
    Kekse:
    10
    Erstellt: 28.01.08   #1
    Ich versuche mich grade an dem Intro hier und verzweifel ):
    Vielleicht kann jemand weiterhelfen ?

    E :----------------|----------------|-----------------------|
    B :----------------|----------------|-----------------------|
    G :----------------|----------------|-----------------------|
    D :5---5-7---5---5-|7---7-9---7---7-|10----10-12---10-------|
    A :--5---------5---|--7---------7---|---10------------------|
    E :----------------|----------------|-----------------------|

    Bis hier hin ist alles klar, und klappt auch überraschend flüssig für meinen Skill...

    E :-----------------------|
    B :-----------------------|
    G :-----------------------|
    D :12----14-12------------|
    A :---12-------15-14-12---|
    E :-----------------------|


    :confused: dieser Takt passt irgendwie überhaupt nicht ):
     
  2. Pete19

    Pete19 Registrierter Benutzer

    Im Board seit:
    22.10.06
    Zuletzt hier:
    13.04.11
    Beiträge:
    284
    Ort:
    Berlin
    Zustimmungen:
    1
    Kekse:
    100
    Erstellt: 28.01.08   #2
    Dann sind es anscheinend verschieden lange Noten. Musst du entweder raushören, dir Tabs für PowerTab oder GuitarPro holen, oder Tabs mit Noten d.h. kaufen. Ersteres und Zweiteres sollten aber gehen.
     
  3. DerZauberer

    DerZauberer Registrierter Benutzer

    Im Board seit:
    03.04.07
    Beiträge:
    2.884
    Ort:
    New York City
    Zustimmungen:
    2.629
    Kekse:
    49.802
    Erstellt: 28.01.08   #3
    Geht das "irgendwie" genauer? Würde auch vorschlagen, mal reinzuhören und danach zu spielen.
     
  4. Helldevil

    Helldevil Registrierter Benutzer

    Im Board seit:
    10.11.07
    Zuletzt hier:
    15.11.16
    Beiträge:
    460
    Zustimmungen:
    6
    Kekse:
    460
    Erstellt: 28.01.08   #4
    Meiner Meinung nach fehlt irgendwie im letzten Takt ne Note, kann das sein?
     
  5. DerZauberer

    DerZauberer Registrierter Benutzer

    Im Board seit:
    03.04.07
    Beiträge:
    2.884
    Ort:
    New York City
    Zustimmungen:
    2.629
    Kekse:
    49.802
    Erstellt: 28.01.08   #5
    Ach ja (geht nicht mit Edit wg. Schriftart, sorry). "Aus dem Kopf" ist der Rhythmus hier total straight:


    ....1..+..2..+..3..+..4..+..
    E :-----------------------|
    B :-----------------------|
    G :-----------------------|
    D :12----14-12------------|
    A :---12-------15-14-12---|
    E :-----------------------|
     
  6. Altobelli

    Altobelli Threadersteller Registrierter Benutzer

    Im Board seit:
    26.01.08
    Zuletzt hier:
    16.02.08
    Beiträge:
    10
    Ort:
    Porta Westfalica
    Zustimmungen:
    0
    Kekse:
    10
    Erstellt: 28.01.08   #6
    Hm... nach nochmaliger Überdenkung des ganzen spielen sich die ersten 3 Takte auch eher so...


    E :----------------|----------------|-----------------------|
    B :----------------|----------------|-----------------------|
    G :----------------|----------------|-----------------------|
    D :5---5-7-5-------|7---7-9-7--.----|10----10-12---10-------|
    A :--5-------------|--7-------------|---10------------------|
    E :----------------|----------------|-----------------------|

    laut dem hier http://de.youtube.com/watch?v=zbe9GYvSXlQ

    Hab immer versucht nach dem Video gespielt und mich gefragt warum das nicht mit meinen Tabs aus dem Netz übereinstimmt - dazu bräuchte ich nun den Schlusstakt
     
  7. Flame-Blade

    Flame-Blade Registrierter Benutzer

    Im Board seit:
    21.09.06
    Zuletzt hier:
    8.12.16
    Beiträge:
    1.547
    Ort:
    Hannover
    Zustimmungen:
    116
    Kekse:
    4.933
    Erstellt: 28.01.08   #7
    Also ich wüsste jetzt nicht was an deinem ersten Tab falsch sein sollte...
     
  8. Altobelli

    Altobelli Threadersteller Registrierter Benutzer

    Im Board seit:
    26.01.08
    Zuletzt hier:
    16.02.08
    Beiträge:
    10
    Ort:
    Porta Westfalica
    Zustimmungen:
    0
    Kekse:
    10
    Erstellt: 28.01.08   #8
    Kommando zurück... ne passt auch der erste Tab für die ersten 3 Takte - hab nur immer die beiden Griffe der D und A Saite im 5., 7., und 10. Bund überhört bzw. falsch getimed. Die Pause ist etwas ungünstig eingezeichnet. Spielt sich dann halt D5, A5, D5, A7, A5 ... pause ... A5, D5

    Nur den Schlußtakt krieg ich halt immer noch nicht zusammen.
     
  9. Koebes

    Koebes Registrierter Benutzer

    Im Board seit:
    02.03.07
    Zuletzt hier:
    25.11.16
    Beiträge:
    2.520
    Zustimmungen:
    279
    Kekse:
    16.337
    Erstellt: 28.01.08   #9
    Die Töne im Schlußtakt spielst Du auf die 8tel gerade aus durch. Einfach alle gleich lang hintereinander. Wichtig ist nur, vorher den Verstärker auf 11 zu drehen.
     
Die Seite wird geladen...

mapping