Tabs / Chords | Wipers - Over the Edge

Moore

Moore

Registrierter Benutzer
Zuletzt hier
16.10.08
Mitglied seit
15.05.05
Beiträge
795
Kekse
82
Ort
Brunsbüttel
Hi,

ich suche von den WIpers Tabs. Im Internet finde ich immer nur die selben. Suche das Lied "Over the Edge".

Hat da wer mal selbst welche von euch gemacht? Oder hat evtl. jemand bessere gefunden? Oder ist jemand so gut, dass er Lust hat sie rauszufinden?

Wäre echt nett, wenn die jemand für mich posten könnte.

-------------------------------------------------------------------------------

Diese Tabs hier hab ich... Wie gesagt. Da fehlt einiges.

(Intro)
E--------------------------------
B--7-7-7-7--7-7-7-7--7-7-7-7--7--
G--7-7-7-7--7-7-7-7--7-7-7-7--7--
D--7-7-7-7--7-7-7-7--7-7-7-7--7--
A--5-5-5-5--5-5-5-5--5-5-5-5--5--
E--------------------------------
(1st part of verse)
E------------------------------------------------------------------
B--10-10-10--10/12-12-12--10-12-12-12--10-12-12-12--10-12-12-12-12-
G--10-10-10--10/12-12-12--10-12-12-12--10-12-12-12--10-12-12-12-12-
D--10-10-10--10/12-12-12--10-12-12-12--10-12-12-12--10-12-12-12-12-
A------------------------------------------------------------------
E------------------------------------------------------------------
E--------------------------------------------|
B--7-7-7--7/9-9-9--7-9-9-9--7-9-9-9--7-9-9-9-| Play 1st part
G--7-7-7--7/9-9-9--7-9-9-9--7-9-9-9--7-9-9-9-| of verse 3x.
D--7-7-7--7/9-9-9--7-9-9-9--7-9-9-9--7-9-9-9-|
A--------------------------------------------|
E--------------------------------------------|
Lyrics:
G Bb
It's not the truth I see
F C
It's just a mockery
G Bb
Don't need to waste my time
F C
You know I really tried
G Bb
You take and never give
F C
Make it so hard to live
G Bb
I'm hangin' on a ledge
F C (Back to Intro Riff)
Push me over the edge

G Bb
Don't do the things you do
F C
Don't have to oblige you
G Bb
Mistrusting on my own
F C
Grown tired of your drone
G Bb
Grow up and be a man
F C
Drop dead right where you stand
G Bb
I'm hangin on a ledge
F C (Back to Intro Riff)
Push me over the edge

--------------------------------------------------------------------------------------------

Danke :)
 
Moore

Moore

Registrierter Benutzer
Zuletzt hier
16.10.08
Mitglied seit
15.05.05
Beiträge
795
Kekse
82
Ort
Brunsbüttel
Niemand? Dann muss ich wohl selbst ran...
 
Moore

Moore

Registrierter Benutzer
Zuletzt hier
16.10.08
Mitglied seit
15.05.05
Beiträge
795
Kekse
82
Ort
Brunsbüttel
*heul*

Irgendwie bekomme ich das nicht hin.....
Kann nich jemand so nett sein und mal schauen, ob das richtig ist?

================================================

Intro:

G:-9-9-9-9-9-9-9-9-9-9-9-9-
D:-9-9-9-9-9-9-9-9-9-9-9-9-
A:-7-7-7-7-7-7-7-7-7-7-7-7-
E:-0-0-0-0-0-0-0-0-0-0-0-0-

Übergang Intro -> Riff1:

H:-10-10-10-
G:-10-10-10-
D:-10-10-10-

Riff1:

H:-4/5-5-5--7-7-7--1/2-2-2--10-10-10-
G:-4/5-5-5--7-7-7--1/2-2-2--10-10-10-
D:-4/5-5-5--7-7-7--1/2-2-2--10-10-10-

Übergang Riff1 -> Riff2:

H:-2-1-0-
G:-2-1-0-
D:-2-1-0-

Riff2 (Pre-Verse & Verse):

H:----------3------3----3--
G:---------5-5----2----5-5
D:---2---5------0-----5---
A:--2---3------------3-----
E:-0------------------------

Übergang -> Riff1:

Siehe Intro + Übergang Intro -> Riff1


===============================================

So... Bis auf das Solo wars das. Kann nich jemand mal schauen, ob das richtig ist, bitte?
Muss doch hier sowas wie nen TAB-Master geben :)

BITTE, BITTE, BITTE !!! :eek:
 
Moore

Moore

Registrierter Benutzer
Zuletzt hier
16.10.08
Mitglied seit
15.05.05
Beiträge
795
Kekse
82
Ort
Brunsbüttel
Hab nochmal was geändert...

Und zwar Riff2 (Pre-Verse & Verse)

================================================

Intro:

G:-9-9-9-9-9-9-9-9-9-9-9-9-
D:-9-9-9-9-9-9-9-9-9-9-9-9-
A:-7-7-7-7-7-7-7-7-7-7-7-7-
E:-0-0-0-0-0-0-0-0-0-0-0-0-

Übergang Intro -> Riff1:

H:-10-10-10-
G:-10-10-10-
D:-10-10-10-

Riff1:

H:-4/5-5-5--7-7-7--1/2-2-2--10-10-10-
G:-4/5-5-5--7-7-7--1/2-2-2--10-10-10-
D:-4/5-5-5--7-7-7--1/2-2-2--10-10-10-

Übergang Riff1 -> Riff2:

H:-2-1-0-
G:-2-1-0-
D:-2-1-0-

Riff2 (Pre-Verse & Verse):

H:----------3------------------
G:---------5-5----2-----------
D:---2---5-------2-----5-7-5-
A:--2---3-------0-----5-------
E:-0------------------3--------

Übergang Intro -> Riff1:

Siehe Intro + Übergang Intro -> Riff1


===============================================

Ich weiß ja, dass niemand sich das mal anschauen möchte, aber bitten tu ich trotzdem nochmal drum. Jetzt stimmen auf jeden Fall die Grundtöne Pre-Verse & Verse.

E - C - A - G
 
Moore

Moore

Registrierter Benutzer
Zuletzt hier
16.10.08
Mitglied seit
15.05.05
Beiträge
795
Kekse
82
Ort
Brunsbüttel
ICH HABS !!!

Puh....

So jetzt zum letzten Mal alles außer das Solo.

================================================

Intro:

G:-9-9-9-9-9-9-9-9-9-9-9-9-
D:-9-9-9-9-9-9-9-9-9-9-9-9-
A:-7-7-7-7-7-7-7-7-7-7-7-7-
E:-0-0-0-0-0-0-0-0-0-0-0-0-

Übergang Intro -> Riff1:

H:-10-10-10-
G:-10-10-10-
D:-10-10-10-

Riff1:

H:------ ---(x3)-7-7-7-(x1)-----------(x3)-10-10-10-(x1)
G:-4/5-5-5-(x3)-7-7-7-(x1)-----------(x3)-10-10-10-(x1)
D:-4/5-5-5-(x3)-7-7-7-(x1)-6/7-7-7-(x3)-10-10-10-(x1)
A:-2/3-3-3-(x3)--------(x1)-6/7-7-7-(x3)------------(x1)
E:-----------(x3)--------(x1)-4/5-5-5-(x3)------------(x1) ---> X1

Dann das:

H:------ ---(x3)-7-7-7-(x1)-----------(x3)
G:-4/5-5-5-(x3)-7-7-7-(x1)-----------(x3)
D:-4/5-5-5-(x3)-7-7-7-(x1)-6/7-7-7-(x3)
A:-2/3-3-3-(x3)--------(x1)-6/7-7-7-(x3)
E:-----------(x3)--------(x1)-4/5-5-5-(x3) ---> X1

Übergang Riff1 -> Riff2:

D:-7-6-5-
A:-7-6-5-
E:-5-4-3-

Riff2 (Pre-Verse & Verse):

H:-----------------------------
G:--------------------2-----------
D:---2---5-5-7-----2-----5-7-5-
A:--2---3---------0-----5-------
E:-0-------------------3--------

Übergang Intro -> Riff1:

Siehe Intro + Übergang Intro -> Riff1


===============================================

Das ist es. Sollte ich mal bei den Tabdingern posten. Falls jetzt dochmal jemand reinschaut und immernoch nen Fehler entdecken sollte. Bitte melden. Aber in den Threat schreibt sowieso niemand außer mir :)

mfG

Marcus
 
Moore

Moore

Registrierter Benutzer
Zuletzt hier
16.10.08
Mitglied seit
15.05.05
Beiträge
795
Kekse
82
Ort
Brunsbüttel
SOLO:



H:-~15-~17-

Dann:

Übergang Intro -> Riff1
 
M

MCHammer

Registrierter Benutzer
Zuletzt hier
10.03.16
Mitglied seit
07.07.05
Beiträge
10
Kekse
14
sieht so aus, als interessiert das keinen :D
 
Moore

Moore

Registrierter Benutzer
Zuletzt hier
16.10.08
Mitglied seit
15.05.05
Beiträge
795
Kekse
82
Ort
Brunsbüttel
Jau hast recht Hammer :D

Schon seit Tagen warte ich auf Antworten... Naja was solls... Jetzt hab ichs ja selbst herausgefunden :) Kannst mich ja bewerten ;) Naja, das nächste Mal bei Janne können wir das ja spielen.
 
whitie

whitie

Registrierter Benutzer
Zuletzt hier
21.11.17
Mitglied seit
05.01.06
Beiträge
605
Kekse
174
Ort
Bare-Leen
dieser therad is ja der reinste witz... der sollte sofort geschlossen werden :D

@MOD: CLOSE
 
Moore

Moore

Registrierter Benutzer
Zuletzt hier
16.10.08
Mitglied seit
15.05.05
Beiträge
795
Kekse
82
Ort
Brunsbüttel
Wieso der reinste Witz?

Zuerst hab ich nach Hilfe gefragt.
Hab sie nicht bekommen.
Dann hab ich mir geholfen und wieder um Hilfe zur Verbesserung gebeten.
Hab wieder keine Hilfe bekommen.

Dann dacht ich mir, kann ich mein fertiges Teil auch noch reinstellen.

Naja, von mir aus kanns dicht gemacht werden. Das Lied stimmt jetzt 1A.
Hab gleich auch nochmal No Fair, richtig getappt *proll*

whitie schrieb:

Da mutiert wohl wer zum Obermacker, wa? ;)
 
Rockka

Rockka

Registrierter Benutzer
Zuletzt hier
18.02.21
Mitglied seit
17.05.05
Beiträge
547
Kekse
1.124
Ort
Köln
Zum Möchtegern mod ^^!

Also ich finds witzig ^^ ich bewundere deine Ausdauer ! :great:

Aber Glückwunsch du hast es geschafft !?
Weil ich soo ein grosses Herz hab und soviel Mitleid mit dir kriegste ne Bewertung :rolleyes: .
Nichts zu danken :p
 
Moore

Moore

Registrierter Benutzer
Zuletzt hier
16.10.08
Mitglied seit
15.05.05
Beiträge
795
Kekse
82
Ort
Brunsbüttel
Doch, DANKE! *knutsch* *würg* ;) ;) ;)
 

Ähnliche Themen

Neue Themen

Unser weiteres Online-Angebot:
Bassic.de · Deejayforum.de · Sequencer.de · Clavio.de · Recording.de

Musiker-Board Logo
Oben