HILFE !!! (solopart)

von GirlRocksOn, 20.02.04.

  1. GirlRocksOn

    GirlRocksOn Registrierter Benutzer

    Im Board seit:
    16.02.04
    Zuletzt hier:
    23.10.04
    Beiträge:
    59
    Zustimmungen:
    0
    Kekse:
    10
    Erstellt: 20.02.04   #1
    was sagt ihr zu diesem solo?
    schwer/ leicht?
    Tipps?
    (vielleicht kennt es je jemand!?)
    nina

    VIVA LA REVOLUTION

    Solo
    e|--------------------------------0----------2/7-7-7-7p5------------------5---|
    B|------------------------------2---2~0------------------7-7~-7~7~7-7p5-------|
    G|--------------------------------------2p1-----------------------------7-----|
    D|-pickslide<<<-4~4~p2p0—4~4~-------------------------------------------------|
    A|----------------------------------------------------------------------------|
    E|------------------------------------------------------------------------------|

    e|-/14-14-14-14-12---------------------------/14-14-14-14-12p10h12-------|
    B|-----------------15~14~-14-14-14-14-12---------------------------15-12-|
    G|---------------------------------------14------------------------------|
    D|-----------------------------------------------------------------------|
    A|-----------------------------------------------------------------------|
    E|-----------------------------------------------------------------------|

    e|-12-12-12-12-12-13-13-13-13-13-13--------------------------------------|
    B|------------------------------------/9~9~9~/9~9~9~7----7-9-7-----------|
    G|----------------------------------------------------10-------10--------|
    D|-----------------------------------------------------------------------|
    A|-----------------------------------------------------------------------|
    E|-----------------------------------------------------------------------|

    e|-----/13-/14---|
    B|-/14-----------|
    G|---------------|
    D|---------------|
    A|---------------|
    E|---------------|
     
  2. level

    level Registrierter Benutzer

    Im Board seit:
    07.02.04
    Zuletzt hier:
    9.02.16
    Beiträge:
    56
    Zustimmungen:
    0
    Kekse:
    10
    Erstellt: 20.02.04   #2
    Alles eine Frage der Geschwindigkeit. ;)
    Sieht aber nicht unbedingt nach Kinderkram aus.
     
  3. GirlRocksOn

    GirlRocksOn Threadersteller Registrierter Benutzer

    Im Board seit:
    16.02.04
    Zuletzt hier:
    23.10.04
    Beiträge:
    59
    Zustimmungen:
    0
    Kekse:
    10
    Erstellt: 20.02.04   #3
    ....ja!!
    undich glaubi ch hab schon die perfekte Lösung:
    üben, üben und nochmalsüben
    BIS DIE FINGER BLUTEN ;)
    nina
     
  4. Schlendrian

    Schlendrian Registrierter Benutzer

    Im Board seit:
    15.01.04
    Beiträge:
    236
    Zustimmungen:
    0
    Kekse:
    37
    Erstellt: 20.02.04   #4
    richtig nina, aber ich würd erst einfach sachen mit erfolgserlebnissen machen, tut gut ;)
     
  5. GirlRocksOn

    GirlRocksOn Threadersteller Registrierter Benutzer

    Im Board seit:
    16.02.04
    Zuletzt hier:
    23.10.04
    Beiträge:
    59
    Zustimmungen:
    0
    Kekse:
    10
    Erstellt: 20.02.04   #5
    Hi,
    ich frag jetzt mal nochmal einfach was zu diesem solo okay?
    ich spiel zwar schon seit 8 jahren gitarre aber (nur) klassik.....
    also ist e-gitarre bissle neu, zumindest die "fachausdrücke" bzw. "zeichen"...

    mir sind folgenede zeichen unklar (kommen alle in dem solo vor):

    pickslide <<<<<
    ~~
    p
    /

    oder kennt jemand ne seite,wo dasalles erklärt ist?
    nina
     
  6. Ascendant

    Ascendant Registrierter Benutzer

    Im Board seit:
    02.11.03
    Zuletzt hier:
    13.11.10
    Beiträge:
    302
    Ort:
    Dortmund
    Zustimmungen:
    0
    Kekse:
    22
    Erstellt: 20.02.04   #6
    Hey noch ne gitarrenspielende Frau.... unglaublich. Scheint ja doch nicht so ganz selten zu sein :-)


    Zu den Zeichen:

    pickslide heisst das Du mit dem Plektrum (Pick) über die Seiten gleitest (Slide)

    p steht für Pulloff, erzeugen eines Tons durch Abziehen des Fingers von der Seite
    Asci
     
  7. elven_king

    elven_king Registrierter Benutzer

    Im Board seit:
    10.11.03
    Zuletzt hier:
    10.12.16
    Beiträge:
    297
    Zustimmungen:
    2
    Kekse:
    43
    Erstellt: 20.02.04   #7
    Tilde (~)-->vibrato
    Slash (/)-->Glissando oder wie das heißt,also von irgendeinem punkt auf dem griffbrett zu dem bund sliden
     
  8. Mattie

    Mattie Registrierter Benutzer

    Im Board seit:
    19.08.03
    Zuletzt hier:
    28.03.10
    Beiträge:
    34
    Zustimmungen:
    0
    Kekse:
    10
    Erstellt: 20.02.04   #8
    Hey, das verdient doch glatt einen Tusch! :D :D :D

    Bei diesem Avatar das Wort Glissando zu kennen. Respekt!
    Das hab ich das erste mal damals in der 11. Klasse von meiner Musiklehrerin gehört - und nach 5 Minuten schon wieder vergessen gehabt. :D

    Aber die Zeichen sind in allen Tabs etwas uneinheitlich.
     
  9. roman

    roman Registrierter Benutzer

    Im Board seit:
    20.02.04
    Zuletzt hier:
    21.04.04
    Beiträge:
    37
    Zustimmungen:
    0
    Kekse:
    10
    Erstellt: 20.02.04   #9
    ich als Anfänger würde sagen nach einer Stunde üben sitzt des
     
  10. Comrade

    Comrade Registrierter Benutzer

    Im Board seit:
    19.02.04
    Zuletzt hier:
    4.01.14
    Beiträge:
    1.894
    Ort:
    Ingolstadt
    Zustimmungen:
    2
    Kekse:
    276
    Erstellt: 28.02.04   #10
    Schaut sehr einfach aus das solo.Das lässt sich an den vielen Notenwiederholungen erkennen.Wenn der rhythmus dann auch noch größtenteils aus den selben Notenwerten besteht is das ziemlich geschenkt.
     
Die Seite wird geladen...

mapping