Korrektes Solo vom Nothing Else Matters

von TrinOO, 22.03.04.

  1. TrinOO

    TrinOO Registrierter Benutzer

    Im Board seit:
    02.09.03
    Zuletzt hier:
    29.11.05
    Beiträge:
    69
    Zustimmungen:
    0
    Kekse:
    10
    Erstellt: 22.03.04   #1
    Hey Leutz ;)
    ich hab jetzt mal wieder überall gesucht und NIRGENDS ne vollständige Version vom Solo von Nothing Else Matters von MetallicA gefunden. Kann mir das vielleicht mal einer von nem Songbook oder ähnlichem einscannen, das Solo reicht mir völlig. Ich will jetzt nur nich irgendwie so'n am schluss doch falsches Solo lernen, weil davon hab ich gar nix.

    thx in advance,
    Daniel
     
  2. RAGMAN

    RAGMAN Mod Emeritus - Gitarren Ex-Moderator

    Im Board seit:
    19.08.03
    Zuletzt hier:
    31.08.13
    Beiträge:
    5.410
    Ort:
    zu Hause...
    Zustimmungen:
    12
    Kekse:
    2.538
    Erstellt: 22.03.04   #2
    das solo kannst Du auch mit der Hilfe von einigen TABs und Deinem Gehör vervollständigen...

    RAGMAN
     
  3. RAGMAN

    RAGMAN Mod Emeritus - Gitarren Ex-Moderator

    Im Board seit:
    19.08.03
    Zuletzt hier:
    31.08.13
    Beiträge:
    5.410
    Ort:
    zu Hause...
    Zustimmungen:
    12
    Kekse:
    2.538
    Erstellt: 22.03.04   #3
    [code:1]
    |------------------------|----------------------------------|
    |--15--------------------|----------------------------------|
    |--14b---14br-12~--14-12-|--11h12p11----11---------12-14-12-|
    |------------------------|-----------14----12-14~-----------|
    |------------------------|----------------------------------|
    |------------------------|----------------------------------|


    |--------12-------12-------------------|---------------------------|
    |-----12-------12----15p12----12-------|----------14--14-13--------|
    |--14b------14b------------15----15-14-|--12br----14--14-13-12\----|
    |--------------------------------------|-------14------------------|
    |--------------------------------------|---------------------------|
    |--------------------------------------|---------------------------|


    |--14/15--14~-----15--14~-15/17--|--15-14h15p14\12----15-14---------------|
    |-------------12-----------------|-----------------12-------12------------|
    |--------------------------------|-------------------------------12-14-12-|
    |--------------------------------|----------------------------------------|
    |--------------------------------|----------------------------------------|
    |--------------------------------|----------------------------------------|


    |----------------------12------------|----------------|--------------|
    |--15---------------12-----15-15b-12-|--15b-----------|--------------|
    |--14br-12----12-14b-----------------|----------------|--------------|
    |----------14------------------------|----------------|--------------|
    |------------------------------------|----------------|--------------|
    |------------------------------------|----------------|--------------|


    |---------------------|--------------------|
    |--12h15p12\-------7\-|--5h7p5-------------|
    |---------------------|--------------------|
    |---------------------|--------------------|
    |---------------------|--------------------|
    |---------------------|--------------------|
    [/code:1]

    damit müsstest Du zurecht kommen...

    RAGMAN
     
  4. TrinOO

    TrinOO Threadersteller Registrierter Benutzer

    Im Board seit:
    02.09.03
    Zuletzt hier:
    29.11.05
    Beiträge:
    69
    Zustimmungen:
    0
    Kekse:
    10
    Erstellt: 23.03.04   #4
    ist das "\" n slide???
     
Die Seite wird geladen...

mapping