Lifehouse - Sick Cycle Carousel Intro

  • Ersteller Larry_Croft
  • Erstellt am

L
Larry_Croft
Registrierter Benutzer
Zuletzt hier
02.09.10
Registriert
03.10.03
Beiträge
1.213
Kekse
0
Ort
NRW
ich hab ma probiert das rauszuhören, aber irgendwie klingt das net 100% richtig :-/

[code:1]E|--------------------------|------------------------|
B|--------------------------|-----------4------------|
G|--------------------------|----------------4-------|
D|--------2--1--1--------4--|--------6---------------|
A|-----2-----------4--4--2--|-----6---------------2--|
E|--0-----------------------|--4---------------------|

--------------------------|------------------------|
--------------------------|--------4-5--4----------|
--------------------------|------------------------|
--------2--1--1--------4--|------------------------|
-----2-----------4--4--2--|-----6---------------2--|
--0-----------------------|--4---------------------|[/code:1]
 
Eigenschaft
 
Killigrew
Killigrew
Registrierter Benutzer
Zuletzt hier
17.11.07
Registriert
18.08.03
Beiträge
2.091
Kekse
811
Ort
Südlich von Ffm
Als von dem Lied gibts auch tabs im internet, was halt denk ich wichtig ist das die ihre Gitarren auf Eb gestimmt haben.
 
L
Larry_Croft
Registrierter Benutzer
Zuletzt hier
02.09.10
Registriert
03.10.03
Beiträge
1.213
Kekse
0
Ort
NRW
das mit Eb hab ich danach auch gemerkt :-/
aber das intro is eigentlich das einzige, das mich an dem lied interessiert...ich such ma im inet, nur häufig sind noten/tabs die net aus songbooks abgeschrieben wurden net die besten...
 

Ähnliche Themen


Neue Themen

Unser weiteres Online-Angebot:
Bassic.de · Deejayforum.de · Sequencer.de · Clavio.de · Guitarworld.de · Recording.de

Musiker-Board Logo
Oben