Theme-Songs und andere bekannte Melodien

von Oliver_, 03.07.05.

  1. Oliver_

    Oliver_ Registrierter Benutzer

    Im Board seit:
    15.04.05
    Zuletzt hier:
    23.11.16
    Beiträge:
    2.755
    Ort:
    Frankfurt am Main
    Zustimmungen:
    72
    Kekse:
    2.836
    Erstellt: 03.07.05   #1
    Hi,
    würde mal gerne erfahren, was ihr so für Theme-Songs (von Fernsehsendungen, Filmen, Videogames oder sonstwas) gerne spielt.
    Vielleicht könntet ihr noch die Tabs mitposten, nach denen ihr spielt! :)

    Ich spiele z.B. sehr gerne Griegs "In The Hall Of The Mountain King":
    Code:
    --------------|-------------|---------------2|-0-------0|---------------------
    -------0-2---2|-1---1--0---0|-------0-2---2--|---2---2--|---------------------
    -0-2-3-----3--|---2------1--|-0-2-3-----3----|-----3----|---------------------
    --------------|-------------|----------------|----------|---------------------
    
    -----1-2-4-1-4|-5-2-5-4-1-4|-----1-2-4-1-4|-5-2-5-4|--------------------------
    -2-4----------|------------|-2-4----------|--------|--------------------------
    --------------|------------|--------------|--------|--------------------------
    --------------|------------|--------------|--------|--------------------------
    
    --------------|-------------|---------------2|-------2--|---------------------
    -------0-2---2|-1---1--0---0|-------0-2---2--|-2---2----|---------------------
    -0-2-3-----3--|---2------1--|-0-2-3-----3----|---3-----0|---------------------
    --------------|-------------|----------------|----------|---------------------
    (wurde schon in diveresen Filmen verwendet)

    Und den Imperial March von John Williams:
    Code:
    G|-------------------------|------------------------------------:|
    D|-------------------------|------------------------------------:|
    A|-0-0-0-----3-0-----3-0---|-7-7-7--8--------3-0----------------:|
    E|--------1-------1-------1|----------8-5--1------1-------------:|
    
    
    G|--------------------------|-----------------------------------:|
    D|-7-------7--6-5-434-----1-|------------------------------2----:|
    A|----------------------1---|-5--4-323-------------3---0-3------:|
    E|----5-5-------------------|-----------1--4---1-4--------------:|
    
    
    G|--------------------------|-----------------------------------:|
    D|-7-------7--6-5-434-----1-|-----------------------------------:|
    A|----------------------1---|-5--4-323-----------3-0-----3-0----:|
    E|----5-5-------------------|-----------1--4---1-------1--------:|
    
    Transcribed by: Gary Russell
    (das Darth Vader-Theme aus Star Wars)
     
  2. freaky_fnk

    freaky_fnk Registrierter Benutzer

    Im Board seit:
    06.01.05
    Zuletzt hier:
    7.11.07
    Beiträge:
    371
    Ort:
    magdeburg
    Zustimmungen:
    0
    Kekse:
    32
    Erstellt: 03.07.05   #2
    die super mario songs sind gut, kann man sogar gut zum üben nehmen und wenn man sie etwas schneller spielt auch schonmal als fingerübung:D
     
  3. Barde

    Barde Registrierter Benutzer

    Im Board seit:
    06.01.05
    Zuletzt hier:
    27.11.16
    Beiträge:
    1.285
    Zustimmungen:
    0
    Kekse:
    315
    Erstellt: 07.07.05   #3
    gerade nich gesehen das es schon da steht aber
    Pink Panther is noch was nettes, nich schwer aber immerhin bekannt
     
  4. disastR

    disastR Registrierter Benutzer

    Im Board seit:
    17.06.04
    Zuletzt hier:
    2.05.13
    Beiträge:
    206
    Ort:
    Karlsruhe
    Zustimmungen:
    0
    Kekse:
    55
    Erstellt: 09.07.05   #4
    die melodie oder die bassline? letztere is aufgrund der sekunden im "refrain" auch keine schlechte fingerübung, spielen wir in der big band :)
     
  5. Fastel

    Fastel Helpful & Friendly User HFU

    Im Board seit:
    11.04.04
    Zuletzt hier:
    6.12.16
    Beiträge:
    5.926
    Ort:
    Tranquility Base
    Zustimmungen:
    565
    Kekse:
    18.025
    Erstellt: 09.07.05   #5
    meinst du sachen nur für den bass?

    ich find den einmarsch der gladiatoren lustig... :)
     
  6. sirweasel

    sirweasel Registrierter Benutzer

    Im Board seit:
    02.07.05
    Zuletzt hier:
    23.11.16
    Beiträge:
    347
    Ort:
    Wien, Österreich
    Zustimmungen:
    7
    Kekse:
    269
    Erstellt: 09.07.05   #6
    Ok...ich spiel ja noch nicht wirklich :)
    Aber ich denke das Ducktales Lied ist auch gut zum üben :D
     
  7. Oliver_

    Oliver_ Threadersteller Registrierter Benutzer

    Im Board seit:
    15.04.05
    Zuletzt hier:
    23.11.16
    Beiträge:
    2.755
    Ort:
    Frankfurt am Main
    Zustimmungen:
    72
    Kekse:
    2.836
    Erstellt: 09.07.05   #7
    Haste mal paar Tabs für das Ducktales-Theme? :/
    Find nur Guitar-Chords...
     
  8. Oliver_

    Oliver_ Threadersteller Registrierter Benutzer

    Im Board seit:
    15.04.05
    Zuletzt hier:
    23.11.16
    Beiträge:
    2.755
    Ort:
    Frankfurt am Main
    Zustimmungen:
    72
    Kekse:
    2.836
    Erstellt: 09.07.05   #8
    Hier noch ein paar Tabs ;)

    Adams Family
    Code:
    key: *=tapp lightly on strings
         $=let ring
    
    
        |----------|----------|--------|--------|----------|
        |----------|------0-**|------0-|------0-|----------|
        |--0-2-3-**|0-2-4-----|0-2-4---|0-2-4---|--0-2-3-**|
        |3---------|----------|--------|--------|3---------|
        
        
        |--------|--------|--------|--------|
        |--2-----|--------|--2-----|--------|
        |-3-32-5$|-252--3$|-3-32-5$|---023--|
        |3----5--|5---53--|3----5--|533-----|
    Find ich besonders lustig mit den Tapping-Parts :D


    Jeopardy
    Code:
    G:--3---3-----3-3-7-54320-3---3---3-20-----|
    D:-3-3-3-3~--3-3---------3-3-3-3------3-3--|
    A:----3---------------------3----------3-1-|
    E:-----------------------------------------|
    *lala-lala--lala-laaa*

    Beverly Hills Cop
    Code:
    g-------------------------------9------------|
    d---5----7-5-----9----9-7-----9--------5-----|
    a-7---77-----7-7---77-----7-7-----77-5---7---|
    e--------------------------------------------|
    Mission Impossible
    Code:
    G|----------------------------------------------------|
    D|----------------------------------------------------|
    A|--------1--3-----------------1--3-------------------|
    E|---3--3-------3--3--1-2-3--3------3--3--1-2-3-------|
    
    
    Variation 1
    G|---3--0------3--0------3--0-------------------------|
    D|----------------------------------------------------|
    A|---------5---------4----------3----1-3--------------|
    E|----------------------------------------------------|
    
    
    Variation 2
    G|----------------------------------------------------|
    D|-----------4---------3----------2---1-0-------------|
    A|-----1----------1-----------1-----------------------|
    E|---3----3---------3-----------3---------------------|
     
  9. sirweasel

    sirweasel Registrierter Benutzer

    Im Board seit:
    02.07.05
    Zuletzt hier:
    23.11.16
    Beiträge:
    347
    Ort:
    Wien, Österreich
    Zustimmungen:
    7
    Kekse:
    269
    Erstellt: 09.07.05   #9
    Puh...ich fang ja erst an zum spielen und bin auf der Bass suche!
    Aber ich werd mal suchen!
     
  10. Oliver_

    Oliver_ Threadersteller Registrierter Benutzer

    Im Board seit:
    15.04.05
    Zuletzt hier:
    23.11.16
    Beiträge:
    2.755
    Ort:
    Frankfurt am Main
    Zustimmungen:
    72
    Kekse:
    2.836
    Erstellt: 09.07.05   #10
    Ohja, danke! :) Hatte das beim googlen zusammengeschrieben gehabt *g*
    Für meine Künste am Bass ist das noch etwas schwierig... Den Wechselschlag über die Entfernung (eine Saite dazwischen) beherrsch ich noch nicht ganz :) Und wenn dann noch nen Leersaiten-Stoppen hinzukommt :screwy:

    Ich kriegs schon noch hin ;)
     
  11. Lainix

    Lainix Registrierter Benutzer

    Im Board seit:
    10.07.05
    Zuletzt hier:
    15.01.11
    Beiträge:
    43
    Ort:
    nähe Hamburg
    Zustimmungen:
    0
    Kekse:
    10
    Erstellt: 11.07.05   #11
    Naja ich find Pink Panther schon ziemlich schwer...

    Hat jemand noch geile Theme-Tabs fuer guitar pro zum runterladen (bin neu hier :rolleyes: )
     
  12. PissingInAction

    PissingInAction Registrierter Benutzer

    Im Board seit:
    07.08.04
    Zuletzt hier:
    7.12.16
    Beiträge:
    383
    Ort:
    weltweit
    Zustimmungen:
    1
    Kekse:
    451
    Erstellt: 11.07.05   #12
    Ein Paar meiner Faves:

    Tetris Theme

    G|5-------------------5----------------5--------------
    D|--5-6-8--6-5-3--5-6---6-5-3--5-6-8----6--3--3------
    A|---------------------------------------------------
    E|---------------------------------------------------

    G|5--6-10--8-6-5--3-5-----------------5----------
    D|----------------------8-6-5--5-6-8---6--3--3--
    A|----------------------------------------------
    E|----------------------------------------------

    Das Riff zweimal, dann:

    G|5-------------------------5----------5--6--10--9~
    D|--6--8--5--6---------------6--8--5---------------
    A|---------------8--7--8.--------------------------
    E|--------------------------------------------------


    Super Mario Underground Theme

    G|----5---2---3-----5---2---3----------------------------|
    D|--------------------------------5---2---3-----5---2---3|
    A|--3---0---1-----3---0---1------------------------------|
    E|------------------------------3---0---1-----3---0---1--|

    G|--------------------------------------------------|
    D|-----------------------------------6-5-4----------|
    A|--6-5-4-3--6--5--------4--3--7-6-5-------4--------|
    E|-----------------4--3----------------------5-4-3-2|


    Terminator Theme

    |---7-9-10-10-9----------7-9-10-10-9-----14-12---|
    |---------------10----------------------10---------|
    |-----------------8---------------------------------|
    |---------------------------------------------------|


    Grabbag (Duke Nukem Theme)

    |--------------------------------------------------------------------|
    |----------------------------------------------------------------4-4-|
    |-------2------2--4-----4--5-------4-2-------------2--5--2---2------|
    |-2--5------2--------2---------2--------5--2--3--5----3----5--------|


    @lainix:
    guckst du www.mysongbook.com oder versuch, die Midi Dateien der Themes zu bekommen, via Guitar Pro zu importieren und in .gp4 Dateien zu konvertieren.
     
  13. Lainix

    Lainix Registrierter Benutzer

    Im Board seit:
    10.07.05
    Zuletzt hier:
    15.01.11
    Beiträge:
    43
    Ort:
    nähe Hamburg
    Zustimmungen:
    0
    Kekse:
    10
    Erstellt: 30.07.05   #13
    Vielen dank noch einmal fuer den hinweis :great:


    Das ist der PinkPanther Tab den ich meine:




    Pink Panther



    G||-------------------------||---------------------|
    D||-------------------------||*--------------------|
    A||--------------4--5----6--||*--7-----------------|
    E||-------------------------||------------7--------|


    ---------------------------||--------------------|----------------------|
    --------------------------*||--------------------|----------------------|
    ---------------4--5----6--*||--7-----------------|--7----------4--5--6--|
    --0------------------------||-----------7--------|--0-------------------|


    ----------------------|-----------4--3-----0--3--|--2-------------------|
    ---------4--5---------|-----4--5--------2--------|-------------5--------|
    --7----------------6--|--7-----------------------|----------------7--5--|
    ----------------------|--------------------------|----------------------|


    ----------------------|----------------------|-----------4--3-----0--7--|
    ----------------------|---------4--5---------|-----4--5--------2--------|
    --7----------4--5--6--|--7----------------6--|--7-----------------------|
    ----------------------|----------------------|--------------------------|


    --5----------------|---------------------|----------------------|
    -------------------|---------------------|---------4--5---------|
    -------------------|------------4--5--6--|--7----------------6--|
    -------------------|---------------------|----------------------|


    -----------4--3-----0--3--|--2-------------------|----------------------|
    -----4--5--------2--------|-------------5--------|----------------------|
    --7-----------------------|----------------7--5--|--7----------4--5--6--|
    --------------------------|----------------------|----------------------|


    -------9----7------------------|----------------------|
    ---------------9----7--5-------|--7b---7b---7b---7b---|
    --7-------------------------7--|----------------------|
    -------------------------------|----------------------|


    ---------------------------|-------------------|
    --5------------------------|-------------------|
    -------7--5----7-----------|-------------------|
    ------------------------7--|----0--------------|



    Ist jetzt bisschen gross geworden, ich spiele jetzt seit oktober bass und ich denke das mich der titel mich bisschen weiter gebracht hat :rolleyes:






     
  14. Bass Boss

    Bass Boss Gesperrter Benutzer

    Im Board seit:
    24.07.05
    Zuletzt hier:
    26.08.09
    Beiträge:
    2.431
    Zustimmungen:
    10
    Kekse:
    1.719
    Erstellt: 30.07.05   #14
    ja hey, ich such schon ewig tabs für das selige titellied von "saber rider"

    kann mir das jmd helfen???
     
  15. Fastel

    Fastel Helpful & Friendly User HFU

    Im Board seit:
    11.04.04
    Zuletzt hier:
    6.12.16
    Beiträge:
    5.926
    Ort:
    Tranquility Base
    Zustimmungen:
    565
    Kekse:
    18.025
    Erstellt: 30.07.05   #15
  16. Dieter5858

    Dieter5858 Registrierter Benutzer

    Im Board seit:
    02.07.05
    Zuletzt hier:
    21.08.09
    Beiträge:
    170
    Zustimmungen:
    0
    Kekse:
    10
    Erstellt: 01.08.05   #16
    Ich mag auch sehr gern
    Little Green Bag
    von Goerge Baker
    Das ist die Filmmusik zu Reservoir Dogs
    Man sollte das Lied als MP3 (oder natürlich den Film) haben um den Takt bzw. den Rytmus richtig hinzukriegen.

    Das ganze ist auch nicht schwer, ich mein ich bin anfänger und bei mir klingt das schon nach etwas...
    Beim Chorus (hab ich nicht gepostet, nur den "Hauptteil") gehts dann etwas schwerer zur Sache, aber ist ja alles machbar.



    G|--------3--------------------------------
    D|--5-3-5---5-3-5-5-3----------------------
    D|---------------------3-5-----------------
    E|-----------------------------------------

    G|----------------------3------------------
    D|--------3---------3-5---5----------------
    D|--5-3-5---5-3-5--------------------------
    E|-----------------------------------------

    G|------------3-----------------------------
    D|--3-3-5-3-5---5-3-5-----------------------
    D|---------------------3-4-5----------------
    E|------------------------------------------

    G|------------------------------------------
    D|----------------3--------3-4-5------------
    D|--0-0-0-0-5-3-5---5-3-5-------------------
    E|------------------------------------------
     
  17. Harry Hammer

    Harry Hammer Registrierter Benutzer

    Im Board seit:
    15.06.05
    Zuletzt hier:
    29.05.07
    Beiträge:
    890
    Ort:
    Tubetown
    Zustimmungen:
    0
    Kekse:
    678
    Erstellt: 01.08.05   #17
    Saber Rider Theme habe ich daheim getabbt, hatten wir mal als Intro in meiner alten Band :D

    "Saaaaber Raaaiiidäääär, and the Star Sheriff´s!!!"
     
  18. xander

    xander Registrierter Benutzer

    Im Board seit:
    29.05.04
    Zuletzt hier:
    23.06.10
    Beiträge:
    2.425
    Zustimmungen:
    2
    Kekse:
    1.795
    Erstellt: 08.08.05   #18
    habt ihr zufällig star wars und indi jones tabs?
     
  19. Fastel

    Fastel Helpful & Friendly User HFU

    Im Board seit:
    11.04.04
    Zuletzt hier:
    6.12.16
    Beiträge:
    5.926
    Ort:
    Tranquility Base
    Zustimmungen:
    565
    Kekse:
    18.025
    Erstellt: 11.08.05   #19
    kannst du mir die melodie (oder euer intro) mal als mp3, midi oder GP zukommen lassen... ich bekomm die melodie im kopf nicht mehr hin :mad:
     
  20. Rooo6

    Rooo6 Registrierter Benutzer

    Im Board seit:
    11.10.04
    Zuletzt hier:
    21.10.13
    Beiträge:
    70
    Zustimmungen:
    0
    Kekse:
    10
    Erstellt: 20.08.05   #20
    Hi,
    da die tage ja schon kürzer werden und bald der este Schnee fällt ;)
    hier zwei Tabs für besinnliche Stunden: :D

     
Die Seite wird geladen...

mapping