Theme-Songs und andere bekannte Melodien

  • Ersteller Oliver_
  • Erstellt am
Oliver_

Oliver_

Registrierter Benutzer
Zuletzt hier
29.11.20
Mitglied seit
15.04.05
Beiträge
2.751
Kekse
2.829
Ort
Frankfurt am Main
Hi,
würde mal gerne erfahren, was ihr so für Theme-Songs (von Fernsehsendungen, Filmen, Videogames oder sonstwas) gerne spielt.
Vielleicht könntet ihr noch die Tabs mitposten, nach denen ihr spielt! :)

Ich spiele z.B. sehr gerne Griegs "In The Hall Of The Mountain King":
Code:
--------------|-------------|---------------2|-0-------0|---------------------
-------0-2---2|-1---1--0---0|-------0-2---2--|---2---2--|---------------------
-0-2-3-----3--|---2------1--|-0-2-3-----3----|-----3----|---------------------
--------------|-------------|----------------|----------|---------------------

-----1-2-4-1-4|-5-2-5-4-1-4|-----1-2-4-1-4|-5-2-5-4|--------------------------
-2-4----------|------------|-2-4----------|--------|--------------------------
--------------|------------|--------------|--------|--------------------------
--------------|------------|--------------|--------|--------------------------

--------------|-------------|---------------2|-------2--|---------------------
-------0-2---2|-1---1--0---0|-------0-2---2--|-2---2----|---------------------
-0-2-3-----3--|---2------1--|-0-2-3-----3----|---3-----0|---------------------
--------------|-------------|----------------|----------|---------------------
(wurde schon in diveresen Filmen verwendet)

Und den Imperial March von John Williams:
Code:
G|-------------------------|------------------------------------:|
D|-------------------------|------------------------------------:|
A|-0-0-0-----3-0-----3-0---|-7-7-7--8--------3-0----------------:|
E|--------1-------1-------1|----------8-5--1------1-------------:|


G|--------------------------|-----------------------------------:|
D|-7-------7--6-5-434-----1-|------------------------------2----:|
A|----------------------1---|-5--4-323-------------3---0-3------:|
E|----5-5-------------------|-----------1--4---1-4--------------:|


G|--------------------------|-----------------------------------:|
D|-7-------7--6-5-434-----1-|-----------------------------------:|
A|----------------------1---|-5--4-323-----------3-0-----3-0----:|
E|----5-5-------------------|-----------1--4---1-------1--------:|

Transcribed by: Gary Russell
(das Darth Vader-Theme aus Star Wars)
 
freaky_fnk

freaky_fnk

Registrierter Benutzer
Zuletzt hier
07.11.07
Mitglied seit
06.01.05
Beiträge
364
Kekse
22
Ort
magdeburg
die super mario songs sind gut, kann man sogar gut zum üben nehmen und wenn man sie etwas schneller spielt auch schonmal als fingerübung:D
 
Barde

Barde

Registrierter Benutzer
Zuletzt hier
18.06.18
Mitglied seit
06.01.05
Beiträge
1.289
Kekse
305
gerade nich gesehen das es schon da steht aber
Pink Panther is noch was nettes, nich schwer aber immerhin bekannt
 
disastR

disastR

Registrierter Benutzer
Zuletzt hier
02.05.13
Mitglied seit
17.06.04
Beiträge
205
Kekse
45
Ort
Karlsruhe
Barde schrieb:
Pink Panther is noch was nettes, nich schwer aber immerhin bekannt
die melodie oder die bassline? letztere is aufgrund der sekunden im "refrain" auch keine schlechte fingerübung, spielen wir in der big band :)
 
Fastel

Fastel

Helpful & Friendly User
HFU
Zuletzt hier
08.04.21
Mitglied seit
11.04.04
Beiträge
6.349
Kekse
20.641
Ort
Tranquility Base
meinst du sachen nur für den bass?

ich find den einmarsch der gladiatoren lustig... :)
 
sirweasel

sirweasel

Registrierter Benutzer
Zuletzt hier
28.02.21
Mitglied seit
02.07.05
Beiträge
386
Kekse
458
Ort
Wien, Österreich
Ok...ich spiel ja noch nicht wirklich :)
Aber ich denke das Ducktales Lied ist auch gut zum üben :D
 
Oliver_

Oliver_

Registrierter Benutzer
Zuletzt hier
29.11.20
Mitglied seit
15.04.05
Beiträge
2.751
Kekse
2.829
Ort
Frankfurt am Main
Haste mal paar Tabs für das Ducktales-Theme? :/
Find nur Guitar-Chords...
 
Oliver_

Oliver_

Registrierter Benutzer
Zuletzt hier
29.11.20
Mitglied seit
15.04.05
Beiträge
2.751
Kekse
2.829
Ort
Frankfurt am Main
Hier noch ein paar Tabs ;)

Adams Family
Code:
key: *=tapp lightly on strings
     $=let ring


    |----------|----------|--------|--------|----------|
    |----------|------0-**|------0-|------0-|----------|
    |--0-2-3-**|0-2-4-----|0-2-4---|0-2-4---|--0-2-3-**|
    |3---------|----------|--------|--------|3---------|
    
    
    |--------|--------|--------|--------|
    |--2-----|--------|--2-----|--------|
    |-3-32-5$|-252--3$|-3-32-5$|---023--|
    |3----5--|5---53--|3----5--|533-----|
Find ich besonders lustig mit den Tapping-Parts :D


Jeopardy
Code:
G:--3---3-----3-3-7-54320-3---3---3-20-----|
D:-3-3-3-3~--3-3---------3-3-3-3------3-3--|
A:----3---------------------3----------3-1-|
E:-----------------------------------------|
*lala-lala--lala-laaa*

Beverly Hills Cop
Code:
g-------------------------------9------------|
d---5----7-5-----9----9-7-----9--------5-----|
a-7---77-----7-7---77-----7-7-----77-5---7---|
e--------------------------------------------|

Mission Impossible
Code:
G|----------------------------------------------------|
D|----------------------------------------------------|
A|--------1--3-----------------1--3-------------------|
E|---3--3-------3--3--1-2-3--3------3--3--1-2-3-------|


Variation 1
G|---3--0------3--0------3--0-------------------------|
D|----------------------------------------------------|
A|---------5---------4----------3----1-3--------------|
E|----------------------------------------------------|


Variation 2
G|----------------------------------------------------|
D|-----------4---------3----------2---1-0-------------|
A|-----1----------1-----------1-----------------------|
E|---3----3---------3-----------3---------------------|
 
sirweasel

sirweasel

Registrierter Benutzer
Zuletzt hier
28.02.21
Mitglied seit
02.07.05
Beiträge
386
Kekse
458
Ort
Wien, Österreich
Oliver_G schrieb:
Haste mal paar Tabs für das Ducktales-Theme? :/
Find nur Guitar-Chords...
Puh...ich fang ja erst an zum spielen und bin auf der Bass suche!
Aber ich werd mal suchen!
 
Oliver_

Oliver_

Registrierter Benutzer
Zuletzt hier
29.11.20
Mitglied seit
15.04.05
Beiträge
2.751
Kekse
2.829
Ort
Frankfurt am Main
Ohja, danke! :) Hatte das beim googlen zusammengeschrieben gehabt *g*
Für meine Künste am Bass ist das noch etwas schwierig... Den Wechselschlag über die Entfernung (eine Saite dazwischen) beherrsch ich noch nicht ganz :) Und wenn dann noch nen Leersaiten-Stoppen hinzukommt :screwy:

Ich kriegs schon noch hin ;)
 
L

Lainix

Registrierter Benutzer
Zuletzt hier
15.01.11
Mitglied seit
10.07.05
Beiträge
43
Kekse
0
Ort
nähe Hamburg
Naja ich find Pink Panther schon ziemlich schwer...

Hat jemand noch geile Theme-Tabs fuer guitar pro zum runterladen (bin neu hier :rolleyes: )
 
PissingInAction

PissingInAction

Registrierter Benutzer
Zuletzt hier
24.09.20
Mitglied seit
07.08.04
Beiträge
384
Kekse
441
Ort
weltweit
Ein Paar meiner Faves:

Tetris Theme

G|5-------------------5----------------5--------------
D|--5-6-8--6-5-3--5-6---6-5-3--5-6-8----6--3--3------
A|---------------------------------------------------
E|---------------------------------------------------

G|5--6-10--8-6-5--3-5-----------------5----------
D|----------------------8-6-5--5-6-8---6--3--3--
A|----------------------------------------------
E|----------------------------------------------

Das Riff zweimal, dann:

G|5-------------------------5----------5--6--10--9~
D|--6--8--5--6---------------6--8--5---------------
A|---------------8--7--8.--------------------------
E|--------------------------------------------------


Super Mario Underground Theme

G|----5---2---3-----5---2---3----------------------------|
D|--------------------------------5---2---3-----5---2---3|
A|--3---0---1-----3---0---1------------------------------|
E|------------------------------3---0---1-----3---0---1--|

G|--------------------------------------------------|
D|-----------------------------------6-5-4----------|
A|--6-5-4-3--6--5--------4--3--7-6-5-------4--------|
E|-----------------4--3----------------------5-4-3-2|


Terminator Theme

|---7-9-10-10-9----------7-9-10-10-9-----14-12---|
|---------------10----------------------10---------|
|-----------------8---------------------------------|
|---------------------------------------------------|


Grabbag (Duke Nukem Theme)

|--------------------------------------------------------------------|
|----------------------------------------------------------------4-4-|
|-------2------2--4-----4--5-------4-2-------------2--5--2---2------|
|-2--5------2--------2---------2--------5--2--3--5----3----5--------|


@lainix:
guckst du www.mysongbook.com oder versuch, die Midi Dateien der Themes zu bekommen, via Guitar Pro zu importieren und in .gp4 Dateien zu konvertieren.
 
L

Lainix

Registrierter Benutzer
Zuletzt hier
15.01.11
Mitglied seit
10.07.05
Beiträge
43
Kekse
0
Ort
nähe Hamburg
Vielen dank noch einmal fuer den hinweis :great:


Das ist der PinkPanther Tab den ich meine:




Pink Panther



G||-------------------------||---------------------|
D||-------------------------||*--------------------|
A||--------------4--5----6--||*--7-----------------|
E||-------------------------||------------7--------|


---------------------------||--------------------|----------------------|
--------------------------*||--------------------|----------------------|
---------------4--5----6--*||--7-----------------|--7----------4--5--6--|
--0------------------------||-----------7--------|--0-------------------|


----------------------|-----------4--3-----0--3--|--2-------------------|
---------4--5---------|-----4--5--------2--------|-------------5--------|
--7----------------6--|--7-----------------------|----------------7--5--|
----------------------|--------------------------|----------------------|


----------------------|----------------------|-----------4--3-----0--7--|
----------------------|---------4--5---------|-----4--5--------2--------|
--7----------4--5--6--|--7----------------6--|--7-----------------------|
----------------------|----------------------|--------------------------|


--5----------------|---------------------|----------------------|
-------------------|---------------------|---------4--5---------|
-------------------|------------4--5--6--|--7----------------6--|
-------------------|---------------------|----------------------|


-----------4--3-----0--3--|--2-------------------|----------------------|
-----4--5--------2--------|-------------5--------|----------------------|
--7-----------------------|----------------7--5--|--7----------4--5--6--|
--------------------------|----------------------|----------------------|


-------9----7------------------|----------------------|
---------------9----7--5-------|--7b---7b---7b---7b---|
--7-------------------------7--|----------------------|
-------------------------------|----------------------|


---------------------------|-------------------|
--5------------------------|-------------------|
-------7--5----7-----------|-------------------|
------------------------7--|----0--------------|



Ist jetzt bisschen gross geworden, ich spiele jetzt seit oktober bass und ich denke das mich der titel mich bisschen weiter gebracht hat :rolleyes:






 
B

Bass Boss

Gesperrter Benutzer
Zuletzt hier
26.08.09
Mitglied seit
24.07.05
Beiträge
2.362
Kekse
1.709
ja hey, ich such schon ewig tabs für das selige titellied von "saber rider"

kann mir das jmd helfen???
 
D

Dieter5858

Registrierter Benutzer
Zuletzt hier
21.08.09
Mitglied seit
02.07.05
Beiträge
169
Kekse
0
Ich mag auch sehr gern
Little Green Bag
von Goerge Baker
Das ist die Filmmusik zu Reservoir Dogs
Man sollte das Lied als MP3 (oder natürlich den Film) haben um den Takt bzw. den Rytmus richtig hinzukriegen.

Das ganze ist auch nicht schwer, ich mein ich bin anfänger und bei mir klingt das schon nach etwas...
Beim Chorus (hab ich nicht gepostet, nur den "Hauptteil") gehts dann etwas schwerer zur Sache, aber ist ja alles machbar.



G|--------3--------------------------------
D|--5-3-5---5-3-5-5-3----------------------
D|---------------------3-5-----------------
E|-----------------------------------------

G|----------------------3------------------
D|--------3---------3-5---5----------------
D|--5-3-5---5-3-5--------------------------
E|-----------------------------------------

G|------------3-----------------------------
D|--3-3-5-3-5---5-3-5-----------------------
D|---------------------3-4-5----------------
E|------------------------------------------

G|------------------------------------------
D|----------------3--------3-4-5------------
D|--0-0-0-0-5-3-5---5-3-5-------------------
E|------------------------------------------
 
Harry Hammer

Harry Hammer

Registrierter Benutzer
Zuletzt hier
29.05.07
Mitglied seit
15.06.05
Beiträge
888
Kekse
668
Ort
Tubetown
Saber Rider Theme habe ich daheim getabbt, hatten wir mal als Intro in meiner alten Band :D

"Saaaaber Raaaiiidäääär, and the Star Sheriff´s!!!"
 
xander

xander

Registrierter Benutzer
Zuletzt hier
23.06.10
Mitglied seit
29.05.04
Beiträge
2.339
Kekse
1.785
habt ihr zufällig star wars und indi jones tabs?
 
Fastel

Fastel

Helpful & Friendly User
HFU
Zuletzt hier
08.04.21
Mitglied seit
11.04.04
Beiträge
6.349
Kekse
20.641
Ort
Tranquility Base
Hellknight schrieb:
Saber Rider Theme habe ich daheim getabbt, hatten wir mal als Intro in meiner alten Band :D
kannst du mir die melodie (oder euer intro) mal als mp3, midi oder GP zukommen lassen... ich bekomm die melodie im kopf nicht mehr hin :mad:
 
Rooo6

Rooo6

Registrierter Benutzer
Zuletzt hier
13.04.20
Mitglied seit
11.10.04
Beiträge
70
Kekse
0
Hi,
da die tage ja schon kürzer werden und bald der este Schnee fällt ;)
hier zwei Tabs für besinnliche Stunden: :D

Ihr Kinderlein kommet


G||-----|-----|-----|-----|-----|-----|
D||*--5-|-5-25|-5-25|-3--3|-2--5|-5-25|
A||*----|-----|-----|---5-|-----|-----|
E||-----|-----|-----|-----|-----|-----|


G|-----|-----|-----|-----|-----|-----|-----|-----|-----|-----|-----||
D|-5-25|-3--3|-2--2|-----|-3-33|-2-22|-7--7|-5-55|10-52|-3---|----*||
A|-----|---5-|-----|-5-55|-----|-----|-----|-----|-----|---52|-3--*||
E|-----|-----|-----|-----|-----|-----|-----|-----|-----|-----|-----||



Stille Nacht


G||-------------|-77-4-55---|---54-------|---54--------|
D||*-575---575--|---------5-|7-7--7-575--|7-7--7-575---|
A||*-----7-----7|-----------|-----------7|-----------7-|
E||-------------|-----------|------------|-------------|


G|77-10-7--5-9-5----------||
D|-------9------5--5-----*||
A|---------------7--85---*||
E|---------------------8--||
 

Ähnliche Themen

Neue Themen

Unser weiteres Online-Angebot:
Bassic.de · Deejayforum.de · Sequencer.de · Clavio.de · Recording.de

Musiker-Board Logo
Oben