MIDI IN -> Ukulele Tabs Konverter

von Leef, 27.08.07.

  1. Leef

    Leef Registrierter Benutzer

    Im Board seit:
    16.03.07
    Beiträge:
    4.274
    Ort:
    Sachsen
    Zustimmungen:
    409
    Kekse:
    5.574
    Erstellt: 27.08.07   #1
    Da ich stolzer Besitzer einer 15 EUR Ukulele bin :rolleyes: und gleichzeitig ein wenig programmiere, kam mir die Idee einfach die MIDI Signale die ich z.B. mit einem MIDI Keyboard eingeben kann in Tabs für die Uke umzuschreiben.

    Ich bin absoluter Anfänger, was Musik angeht, aber sehr experimentierfreudig. Ich würde mich über Feedback freuen, wenn jemand Fehler in der Notation oder anderer Art findet! :great:

    Das Tab-Text-Datei Format habe ich mir in einem anderen Thread abgeschaut, keine Ahnung ob das so richtig ist. Aller 5 Noten mache ich einen neuen Part auf, bei 20 breche ich Darstellungsbedingt um.

    Mein Programm berücksichtigt nur das "Note an" Event, forwarded aber alle anderen wenn der Haken gesetzt ist (für ein Feedback während der Noteneingabe). Programm 0-127 ist das derzeitige MIDI Instrument und die Notendauer für das Playback ist konstant, kann aber auch angegeben werden (dient sowieso nur zur Kontrolle).

    Ich habe ein, zwei einfache Stücke probiert und auf meiner Uke gespielt, scheint soweit zu funktionieren. Das Programm schaut nun, wo diese Note auf der Uke gespielt werden kann und trägt die Saite mit der niedrigsten Nummer ein, wird nichts gefunden erscheint die MIDI Notennummer und ein ? an der Stelle beim Konvertieren. Als Referenz habe ich dabei das rechte Bild genommen (modedit: alter link)

    Ich hoffe das Programm gibt's noch nicht, und falls doch - habe ich wieder ein wenig Programmieren geübt :p

    PS: Gibt es außer dem Sticky Thread irgendwo einen Bereich wo man solche kleinen hausgemachten Projekte einstellen kann, damit sie später auch wieder gefunden werden?
     

    Anhänge:

  2. Leef

    Leef Threadersteller Registrierter Benutzer

    Im Board seit:
    16.03.07
    Beiträge:
    4.274
    Ort:
    Sachsen
    Zustimmungen:
    409
    Kekse:
    5.574
    Erstellt: 10.12.07   #2
    Ich habe mal die neueste Version auf ein paar Weihnachtslieder losgelassen... die Tonart ist irgendwas verrücktes, sie werden automatisch transponiert bis sie in den Tonumfang der Uke passen... da ich 0 Feedback hatte, gibts die neue Programmversion erst wenn wirklich jemand Interesse hat...

    Code:
    Stille Nacht, Heilige Nacht
    
    B |:-----0------:|--5--5--2--3--3---|
    F#|:-----------0:|------------------|
    D |:------------:|------------------|
    A |:--0-----0---:|-----------------0|
    
    
    B |:--0--0--3--2--0|-----0------:|
    F#|:---------------|-----------0:|
    D |:---------------|------------:|
    A |:---------------|--0-----0---:|
    
    B |--5--5--8--5--2--3--7|
    F#|---------------------|
    D |---------------------|
    A |---------------------|
    
    B |--3------------------|
    F#|--------0-----1------|
    D |-----------------2--0|
    A |-----0-----0---------|
    
    Oh Tannenbaum
    
    B |------------|-----0--0--0|--0-----0--1---------|--3--3--0--5|
    F#|-----1--1--1|------------|--------------0-----1|------------|
    D |--0---------|------------|---------------------|------------|
    A |------------|--0---------|-----0-----------0---|------------|
    
    B |--3--3--1--1|--1--1-----3--1--1--0--0|------------|-----0--0--0|
    F#|------------|------------------------|-----1--1--1|------------|
    D |------------|------------------------|--0---------|------------|
    A |------------|--------0---------------|------------|--0---------|
    
    B |--0-----0--1----------|
    F#|-------------0-----1--|
    D |----------------------|
    A |----0-----------0-----|
    
    
     
  3. Leef

    Leef Threadersteller Registrierter Benutzer

    Im Board seit:
    16.03.07
    Beiträge:
    4.274
    Ort:
    Sachsen
    Zustimmungen:
    409
    Kekse:
    5.574
    Erstellt: 11.12.07   #3
  4. Leef

    Leef Threadersteller Registrierter Benutzer

    Im Board seit:
    16.03.07
    Beiträge:
    4.274
    Ort:
    Sachsen
    Zustimmungen:
    409
    Kekse:
    5.574
    Erstellt: 24.11.08   #4
    Arbeite im Moment an einer neuen Version. Für Wünsche / Verbessungsvorschläge bitte im anderen Thread posten :great:
     
  5. Tice76

    Tice76 Registrierter Benutzer

    Im Board seit:
    07.02.09
    Zuletzt hier:
    28.02.09
    Beiträge:
    1
    Ort:
    MG
    Zustimmungen:
    0
    Kekse:
    10
    Erstellt: 07.02.09   #5
    wo bekomme ich den midis dafür her?
     
  6. Leef

    Leef Threadersteller Registrierter Benutzer

    Im Board seit:
    16.03.07
    Beiträge:
    4.274
    Ort:
    Sachsen
    Zustimmungen:
    409
    Kekse:
    5.574
    Erstellt: 22.03.09   #6
  7. Leef

    Leef Threadersteller Registrierter Benutzer

    Im Board seit:
    16.03.07
    Beiträge:
    4.274
    Ort:
    Sachsen
    Zustimmungen:
    409
    Kekse:
    5.574
    Erstellt: 28.03.09   #7
Die Seite wird geladen...

mapping