Mit welchem Fingersatz für "This War is ours" Intro ?

  • Ersteller nexttry
  • Erstellt am
N
nexttry
Registrierter Benutzer
Zuletzt hier
27.08.11
Registriert
28.05.10
Beiträge
24
Kekse
0
HI ^^
(sry hab mich im Titel verschrieben)

Wie im Titel schon erwähnt suche ich einen passenden Fingersatz für das "This War is ours" Intro von Escape the fate!

Hier die Tabs :

D|-------------9p5----------------------------9p5----------------------------|
A|-----------7-----7------------------------7-----7--------------------------|
F|---------6---------6--------------------6---------6------------------------|
C|-------7------------------------------7------------------------------------|
G|-----9------------------------------9--------------------------------------|
C|---------------------------------------------------------------------------|

D|------------10p5-----------------------------10p5--------------------------|
A|---------7-------7------------------------7-------7------------------------|
F|-------7-----------7--------------------7-----------7----------------------|
C|-----7--------------------------------7------------------------------------|
G|---9--------------------------------9--------------------------------------|
C|---------------------------------------------------------------------------|

D|---------------17p15----------------------------17p15----------------------|
A|-----------15--------15----------------------15-------15-------------------|
F|--------14--------------14----------------14-------------14----------------|
C|-----16--------------------------------16----------------------------------|
G|--17--------------------------------17-------------------------------------|
C|---------------------------------------------------------------------------|

D|---------------------------------------------------------------------------|
A|---------------------------------------------------------------------------|
F|-----------------6-7-----------------7-9-----------------------------------|
C|-----------6-7-9--------------7-9-11---------------------------------------|
G|----5-7-9--------------7-9-11----------------------------------------------|
C|---------------------------------------------------------------------------|

Im moment sieht es so aus:


Der erste E-mol sweep funktioniert ganz easy, dort muss ich lediglich noch ein wenig am Tempo arbeiten.

Der 2te ist mein hauptproblem, da ich keine geschwindigkeit aufbauen kann wenn ich barre mache und abroll, und wenn ich alle einzeln drücke dann fühlt sich das auch extrem hakelig an und ich will das sauber spieln und nicht hudeln ...

Der dritte is wieder ganz in Ordnung
Und das legato Stückchen funktioniert auch


... nun würde es mir sehr helfen wenn ihr mir euren besten Fingersatz (bitte im detail) zum untenstehenden Arpeggio schreiben und vieleicht noch ein paar tipps zum schnellen sweepen geben könntet.



D|------------10p5-----------------------------10p5--------------------------|
A|---------7-------7------------------------7-------7------------------------|
F|-------7-----------7--------------------7-----------7----------------------|
C|-----7--------------------------------7------------------------------------|
G|---9--------------------------------9--------------------------------------|
C|---------------------------------------------------------------------------|

Vielen dank im Voraus :)
 
Bastman93
Bastman93
Registrierter Benutzer
Zuletzt hier
07.01.19
Registriert
13.01.09
Beiträge
109
Kekse
70
Ort
Dresden
Hi,

ich würde bei solchen Arpeggios schon ein Barree greifen und dann abrollen. Das musst du einfach langsam üben bis es sauber klingt.

Du könntest es mir kleineren "Barree-Arpeggios" üben zb:
D|---------------12-15p12-------------------------------------|
A|-----------14--------------14--------------------------------|
F|-------14----------------------14----------------------------|
C|--------------------------------------------------------------|
G|--------------------------------------------------------------|
C|---------------------------------------------------------------|
 

Ähnliche Themen

Neue Themen

Unser weiteres Online-Angebot:
Bassic.de · Deejayforum.de · Sequencer.de · Clavio.de · Guitarworld.de · Recording.de

Musiker-Board Logo
Oben