one anfangssolo!

von MelancholyDeath, 20.04.07.

  1. MelancholyDeath

    MelancholyDeath Registrierter Benutzer

    Im Board seit:
    18.04.07
    Zuletzt hier:
    18.06.07
    Beiträge:
    36
    Zustimmungen:
    0
    Kekse:
    10
    Erstellt: 20.04.07   #1
    hallöle :)
    ich versuch mich grad am one anfangssolo...komm aber nicht ganz klar mit meinen patschewurstfingern...also denke nicht dass ichs richtig probiere.
    könnte mir jemand nen fingersatz mal anfertigen? wäre echt nett :)
    hab schon gesucht aber find nix!

    H H S S S S E E S S S S H.
    -----------|----------------------14--19--|--17p-15-14-15----------------|
    -----------|-------------------15---------|---------------15~------------|
    -----------|----------------16------------|------------------------------|
    -----------|-------------16---------------|------------------------------|
    -----------|------------------------------|------------------------------|
    -----------|------------------------------|------------------------------|


    E S S E E S S E E S S E E E E E E Q
    ---------------------------------|---------------------0-------|
    ---------------------------------|---------------------0-------|
    -----7p-6-7-----9p-7-9-----11p-9-|--11-----12--12--11----------|
    ---------------------------------|-----------------------------|
    ---------------------------------|-----------------------------|
    ---------------------------------|-----------------------------|


    E S S S S E S S S S E S S S S E E E E E E E
    -------------------------7------|----7-9--10--12--10--9------9--|
    ---------7-8-10------7-8--------|--7---------------------12-----|
    -------7-----------7----------7-|-------------------------------|
    -----9-----------9----------9---|-------------------------------|
    --------------------------------|-------------------------------|
    --------------------------------|-------------------------------|


    E. S Q E S S Q E S S E S S E S S E S S
    --9---10-------14--14br-L-14~----|
    ---------12----------------------|
    ---------------------------------|
    ---------------------------------|
    ---------------------------------|
    ---------------------------------
     
  2. whitie

    whitie Registrierter Benutzer

    Im Board seit:
    05.01.06
    Zuletzt hier:
    30.01.15
    Beiträge:
    606
    Ort:
    Bare-Leen
    Zustimmungen:
    1
    Kekse:
    184
    Erstellt: 21.04.07   #2
    tipp: probiers mal richtig und intensiv, dann brauchste keinen verfassten fingersatz:great:
     
  3. riddler

    riddler Registrierter Benutzer

    Im Board seit:
    14.11.05
    Zuletzt hier:
    28.03.15
    Beiträge:
    3.266
    Ort:
    BaWü
    Zustimmungen:
    4
    Kekse:
    6.132
    Erstellt: 21.04.07   #3
    mal so wie ichs spiel:
    Z=Zeige
    M=Mittel
    R=Ring
    K=Kleiner
    Code:
    -------------------------K--R--M--Z---K------R---Z--Z--M--M--------------------
    -----------|----------------------14--19--|--17p-15-14-15----------------|
    -----------|-------------------15---------|---------------15~------------|
    -----------|----------------16------------|------------------------------|
    -----------|-------------16---------------|------------------------------|
    -----------|------------------------------|------------------------------|
    -----------|------------------------------|------------------------------|
    
    
    -----M--Z-M-----R--Z-R-----R-Z-R----R------R---R---M----------------
    ---------------------------------|---------------------0-------|
    ---------------------------------|---------------------0-------|
    -----7p-6-7-----9p-7-9-----11p-9-|--11-----12--12--11----------|
    ---------------------------------|-----------------------------|
    ---------------------------------|-----------------------------|
    ---------------------------------|-----------------------------|
    
    
    -----R-Z-Z-M-K---R-Z-Z-M-Z--R-Z----Z-Z-R---R---R---Z--Z--K---Z----
    -------------------------7------|----7-9--10--12--10--9------9--|
    ---------7-8-10------7-8--------|--7---------------------12-----|
    -------7-----------7----------7-|-------------------------------|
    -----9-----------9----------9---|-------------------------------|
    --------------------------------|-------------------------------|
    --------------------------------|-------------------------------|
    
    
    --Z---M--K-----R---R------R----
    --9---10-------14--14br-L-14~----|
    ---------12----------------------|
    ---------------------------------|
    ---------------------------------|
    ---------------------------------|
    ---------------------------------
    
     
  4. Maxi

    Maxi Registrierter Benutzer

    Im Board seit:
    04.09.05
    Zuletzt hier:
    9.12.16
    Beiträge:
    3.849
    Zustimmungen:
    350
    Kekse:
    5.099
    Erstellt: 21.04.07   #4
    kleine zwichenfrage? spielt der im orginal den anfang auch mit sweeping?
    ich mach das nämlich so!
     
  5. ...andi

    ...andi Registrierter Benutzer

    Im Board seit:
    07.11.05
    Zuletzt hier:
    26.10.11
    Beiträge:
    99
    Ort:
    Eschenbach
    Zustimmungen:
    0
    Kekse:
    10
    Erstellt: 22.04.07   #5
    bei dem sweep am anfang könntest du das f auf der d-saite (16. bund) einfach weglassen, hab ich am anfang auch gemacht, wird dadurch deutlich einfacher und klingt kaum anders.
     
  6. MelancholyDeath

    MelancholyDeath Threadersteller Registrierter Benutzer

    Im Board seit:
    18.04.07
    Zuletzt hier:
    18.06.07
    Beiträge:
    36
    Zustimmungen:
    0
    Kekse:
    10
    Erstellt: 23.04.07   #6
    donke! mit dem fingersatz klappts leichter :) (und ja ich probiers auch intensiv ^.^)
     
  7. normanz

    normanz Registrierter Benutzer

    Im Board seit:
    17.12.06
    Zuletzt hier:
    13.06.08
    Beiträge:
    39
    Ort:
    Bargteheide
    Zustimmungen:
    0
    Kekse:
    10
    Erstellt: 23.04.07   #7
    was für ein "one" solo? mich würde das lied interessieren
     
  8. riddler

    riddler Registrierter Benutzer

    Im Board seit:
    14.11.05
    Zuletzt hier:
    28.03.15
    Beiträge:
    3.266
    Ort:
    BaWü
    Zustimmungen:
    4
    Kekse:
    6.132
    Erstellt: 23.04.07   #8
Die Seite wird geladen...

mapping