One - Bridge spielen

  • Ersteller Helle B.eC
  • Erstellt am
Helle B.eC
Helle B.eC
Registrierter Benutzer
Zuletzt hier
03.04.09
Registriert
01.09.06
Beiträge
341
Kekse
126
Ort
Kreis Neuwied
Hi,

ich bin grade dabei den letzten Part für One von Metallica zu lernen. Und zwar ist das die Bridge (Studioversion, ca. 1:30-1:45).

Gibt zwar Guitartabs ohne Ende, aber mir kann niemand erzählen dass das Kirk und James spielen ;)

BSP:
Code:
Spur 1
       D                Bm     C   Bm       Am      G    G     F    F  G  Am    
                                                                          
                                   |---6--| |--6--|                             
       E    E  E  E.  S E      S S S   S  S S  S  S Q    E     Q    E  E  Q     
E||------------------------|--------------------------------|------------------|
B||------------------------|--------------------------------|------------------|
G||---------7-----7-----7--|---9---7h--9p-7-5h-7p-5-4----4--|--2----2--4--5----|
D||------------7--------9--|--10---9h-10p-9-7h-9p-7-5----5--|--3----3--5--7----|
A||--3g5-------------------|--------------------------------|------------------|
E||------------------------|--------------------------------|------------------|


  Em                 
  E   E  H           
-------------------||
-------------------||
--4h--5--4~--------||
--5~-----5---------||
-------------------||
-------------------||

NIE IM LEBEN! wie spielt ihr das? Wie spielen die Jungs von Metallica das Live?
Bin für jeden Tipp dankbar
 
Eigenschaft
 
Takt 41-50

Entspricht vielleicht nicht der Studioversion - aber der Liveversion. Der Tab von dir ist mit der Harmonie von Kirks Spur die im original vorhanden ist.
 

Anhänge

  • one - james.JPG
    one - james.JPG
    100,9 KB · Aufrufe: 172
  • one - kirk.JPG
    one - kirk.JPG
    103 KB · Aufrufe: 175
Code:
Spur 1
       D                Bm     C   Bm       Am      G    G     F    F  G  Am    
                                                                          
                                   |---6--| |--6--|                             
       E    E  E  E.  S E      S S S   S  S S  S  S Q    E     Q    E  E  Q     
E||------------------------|--------------------------------|------------------|
B||------------------------|--------------------------------|------------------|
G||---------7-----7-----7--|---9---7h--9p-7-5h-7p-5-4----4--|--2----2--4--5----|
D||------------7--------9--|--10---9h-10p-9-7h-9p-7-5----5--|--3----3--5--7----|
A||--3g5-------------------|--------------------------------|------------------|
E||------------------------|--------------------------------|------------------|
also ich würde sagen, da wurden beide Spuren, von James und Kirk, in eine getabbt. Der einer spielt das Zeug auf der G Saite, der andere das Zeug auf der D Saite.
 
@riddler: Danke, hört sich prima an und ist spielbar :)

@hohoho: nope, James hat auch noch seine eigene Spur gehabt, aber im Studio ist ja alles möglich ;) Ich denke mal er wirds separat eingespielt haben oder mit nem Harmonizer realisiert haben.
 

Ähnliche Themen


Unser weiteres Online-Angebot:
Bassic.de · Deejayforum.de · Sequencer.de · Clavio.de · Guitarworld.de · Recording.de

Musiker-Board Logo
Zurück
Oben