Pattern-Frage

von Scatterbrain, 03.02.07.

  1. Scatterbrain

    Scatterbrain Registrierter Benutzer

    Im Board seit:
    10.07.06
    Zuletzt hier:
    5.12.11
    Beiträge:
    20
    Zustimmungen:
    0
    Kekse:
    47
    Erstellt: 03.02.07   #1
    In Ulli Bögershausens "Easy Fingerstyle" gibt es laut eigener Aussage keine Barrées.
    Jetzt sehe ich in Song 5, Takt 3 aber folgendes Pattern:

    ----------------------------
    ------------------2---------
    -----------2----------------
    --------3-------------2----
    --2------------2-----------
    ----------------------------

    Sehe ich gerade den Wald vor lauter Bäumen nicht, oder ist ein Barrée im 2. Bund (was prinzipiell zwar einfach, aufgrund der Geschwindigkeit an dieser Stelle aber doch ziemlich unpraktisch wäre) die einzig vernünftige Griffmöglichkeit?

    Danke!
     
  2. Scatterbrain

    Scatterbrain Threadersteller Registrierter Benutzer

    Im Board seit:
    10.07.06
    Zuletzt hier:
    5.12.11
    Beiträge:
    20
    Zustimmungen:
    0
    Kekse:
    47
    Erstellt: 03.02.07   #2
    Ha, Problem gelöst! Und zwar handelt es sich offenbar einfach um einen Druckfehler, richtig müsste das Pattern nämlich so aussehen:

    ----------------------------
    ------------------3---------
    -----------2----------------
    --------3-------------2----
    --2------------2-----------
    ----------------------------

    Dann klappts auch ohne Barré und hört sich zudem vernünftig an. Hab mich schon gewundert...
     
Die Seite wird geladen...

mapping