RHCP Live at Slane - Zephyr Song

von HansHans, 05.02.07.

  1. HansHans

    HansHans Registrierter Benutzer

    Im Board seit:
    19.10.06
    Zuletzt hier:
    18.11.07
    Beiträge:
    155
    Zustimmungen:
    0
    Kekse:
    10
    Erstellt: 05.02.07   #1
    Hallo,
    hat jemand zufällig die Tabs zu diesem Solo. Finde es einfach nur gut, mit viel gefühl und sonwas gepielt :rolleyes:. GP-Dateien wären natürlich top.
    Danke
     
  2. Corny

    Corny Registrierter Benutzer

    Im Board seit:
    29.01.05
    Zuletzt hier:
    4.12.16
    Beiträge:
    1.265
    Zustimmungen:
    26
    Kekse:
    3.097
    Erstellt: 05.02.07   #2
    ...leider nur die Studioversion, oder genügt die?
     
  3. Stoney

    Stoney Registrierter Benutzer

    Im Board seit:
    17.11.06
    Zuletzt hier:
    3.12.15
    Beiträge:
    570
    Ort:
    .at
    Zustimmungen:
    37
    Kekse:
    3.746
    Erstellt: 06.02.07   #3
    hm ... also ich hab das guitar-pro-file zu hause
    (bin leider momentan @ work also kann ich nciht nachsehen, welches es genau war)

    aber ich habs von ultimate-guitar afair ...

    demnach muss eins von den dreien live at slane sein:

    The Zephyr Song Guitar Pro Tab by Red Hot Chili Peppers
    The Zephyr Song Guitar Pro Tab (ver 2) by Red Hot Chili Peppers
    The Zephyr Song Guitar Pro Tab (ver 3) by Red Hot Chili Peppers

    btw: aber es stimmt nicht zu 100% ... zb ist das letzte bending (dieser letzte schrille hohe ton des solos) falsch notiert ... also ohne "pintch harmonic" ...

    hoffe es is dabei - lg stoney
     
  4. HansHans

    HansHans Threadersteller Registrierter Benutzer

    Im Board seit:
    19.10.06
    Zuletzt hier:
    18.11.07
    Beiträge:
    155
    Zustimmungen:
    0
    Kekse:
    10
    Erstellt: 07.02.07   #4
    Danke erstmal. ABer eigentlich meinte ich das Solo nach diesem. Das zum Ende des Liedes, nach "to live forever" oder so. hoffe ihr wisst was ich meine
     
  5. HansHans

    HansHans Threadersteller Registrierter Benutzer

    Im Board seit:
    19.10.06
    Zuletzt hier:
    18.11.07
    Beiträge:
    155
    Zustimmungen:
    0
    Kekse:
    10
    Erstellt: 09.02.07   #5
    Keiner eine Antwort ??
     
  6. Stoney

    Stoney Registrierter Benutzer

    Im Board seit:
    17.11.06
    Zuletzt hier:
    3.12.15
    Beiträge:
    570
    Ort:
    .at
    Zustimmungen:
    37
    Kekse:
    3.746
    Erstellt: 14.02.07   #6
    zwar nicht GP aber immerhin etwas:

    Code:
    ENDING
    
    -13-12------------------13-12----------------------|
    -------13--13-13-13-13--------15-15---15/13b---/15-|
    ---------------------------------------------------|
    ---------------------------------------------------|
    ---------------------------------------------------|
    ---------------------------------------------------|
    
    -------------------15-13-12--------------------------17p13-|
    -15/17/15-13-13b------------13--13/15----13h15-13h15-------|
    -----------------------------------------------------------|
    -----------------------------------------------------------|
    -----------------------------------------------------------|
    -----------------------------------------------------------|
    
    ------------------------15-13-12------------------------------------|
    -15/17/15-13-13-13-13b-----------13--13/15--15-15-15-15-15p13---/17-|
    --------------------------------------------------------------------|
    --------------------------------------------------------------------|
    --------------------------------------------------------------------|
    --------------------------------------------------------------------|
    
    ----15p0--15-13-12-13--------------------------------------------------------|
    -13-------------------13-13-----15---------------14-------13-------13---/19~-|
    -----------------------------12----12-11--11--11----11h12----11h12------/18~-|
    -----------------------------------------------------------------------------|
    -----------------------------------------------------------------------------|
    -----------------------------------------------------------------------------|
    
    
    have fun - lg stoney
     
  7. HansHans

    HansHans Threadersteller Registrierter Benutzer

    Im Board seit:
    19.10.06
    Zuletzt hier:
    18.11.07
    Beiträge:
    155
    Zustimmungen:
    0
    Kekse:
    10
    Erstellt: 14.02.07   #7
    Super, probier ich aus wenn ich zuhaus bin danke !
     
Die Seite wird geladen...

mapping