Smash Mouth - I'm a believer

von torbi, 07.06.06.

  1. torbi

    torbi Registrierter Benutzer

    Im Board seit:
    27.03.06
    Zuletzt hier:
    18.07.12
    Beiträge:
    4
    Zustimmungen:
    0
    Kekse:
    10
    Erstellt: 07.06.06   #1
    Hi!
    Hat jemand von euch zufällig eine Guitar Pro Tabulatur zu I'm a believer von Smash Mouth?
    Das Solo ist mir da am Wichtigsten.. Ich bin leider kein Ass im raushören, sonst würd ich das ja machen, aber das klappt irgendwie leider nicht so :/ Wär cool, wenn einer eine Guitar Pro Tabulatur hätte, auch eine normale für das Solo wär klasse.. Hab schon überall gesucht, leider nur bei ultimateguitar eine tab fürs solo gefunden, aber ich glaub das stimmt nicht ganz :/
    Noch toller wäre es, wenn jemand so lieb wär und das vllt. raushören könnte, wenn das keiner hat.. Das wär wirklich top!
    Danke schonmal im Vorraus für eure Hilfe!
    Liebe Grüße,
    Torbi
     
  2. wasa

    wasa Registrierter Benutzer

    Im Board seit:
    26.11.05
    Zuletzt hier:
    11.02.09
    Beiträge:
    109
    Zustimmungen:
    0
    Kekse:
    23
    Erstellt: 08.06.06   #2
    sry, GP-file gibts glaub ich nich, musst halt evt. nochmal googlen.

    Hier der link zum textbasierenden Tab ::> KLICK

    Hier das solo, gerade gefunden:
    Code:
    
    e-5-----------5-|
    a---3-4-555-3---|
    d---------------|   X4
    g---------------|
    b---------------|
    e---------------|
    
    e-10------------10--|
    a---8-9-101010-8----|
    d-------------------| x2
    g-------------------|
    b-------------------|
    e-------------------|
    
    e-5-----------5-|
    a---3-4-555-3---|
    d---------------|   x2
    g---------------|
    b---------------|
    e---------------|
    
    e----------------------|
    a-12-10-11-121212-10-7-|
    d----------------------|
    g----------------------|
    b----------------------|
    e----------------------|
    
    e------------------|
    a-12-11-101010-8-5-|
    d------------------|
    g------------------|
    b------------------|
    e------------------|
    
    e-5-----------5-|
    a---3-4-555-3---|
    d---------------|
    g---------------|
    b---------------|
    e---------------|
    
    
    

    hoffe ich konnte helfen,
    wasa
     
  3. Masta Kurt

    Masta Kurt Registrierter Benutzer

    Im Board seit:
    31.07.05
    Zuletzt hier:
    28.11.07
    Beiträge:
    77
    Ort:
    Niederösterreich
    Zustimmungen:
    0
    Kekse:
    10
    Erstellt: 08.06.06   #3
    ich hab jetz nicht die möglichkeit anzuhörn ob zwischen original und smash mouth cover ein unterschied is, aber hier mal das original im anhang.
     

    Anhänge:

Die Seite wird geladen...

mapping