Stormrider - Battle Hymns Version?

von DanTheMan, 15.07.06.

  1. DanTheMan

    DanTheMan Registrierter Benutzer

    Im Board seit:
    16.11.04
    Zuletzt hier:
    25.11.16
    Beiträge:
    1.342
    Ort:
    München
    Zustimmungen:
    24
    Kekse:
    1.228
    Erstellt: 15.07.06   #1
  2. Fastel

    Fastel Helpful & Friendly User HFU

    Im Board seit:
    11.04.04
    Zuletzt hier:
    6.12.16
    Beiträge:
    5.926
    Ort:
    Tranquility Base
    Zustimmungen:
    565
    Kekse:
    18.025
    Erstellt: 16.07.06   #2
    bin ich noch zu müde und demnach zu verwirrt um den wirklichen unterschied zu hören? das einzige was ich da nun anders höre ist dass es zwischen den bekannten chords gewisse übergänge sind die im original nicht da sind.

    versuch das problem mal etwas einzugrenzen. was genau ist jetzt anders?
    (sorry bin noch etwas verkatert)
     
  3. DanTheMan

    DanTheMan Threadersteller Registrierter Benutzer

    Im Board seit:
    16.11.04
    Zuletzt hier:
    25.11.16
    Beiträge:
    1.342
    Ort:
    München
    Zustimmungen:
    24
    Kekse:
    1.228
    Erstellt: 16.07.06   #3
  4. Fastel

    Fastel Helpful & Friendly User HFU

    Im Board seit:
    11.04.04
    Zuletzt hier:
    6.12.16
    Beiträge:
    5.926
    Ort:
    Tranquility Base
    Zustimmungen:
    565
    Kekse:
    18.025
    Erstellt: 16.07.06   #4
    du redest von dieser stelle?

    PHP:
      1     2     3     4       1     2     3     4       1     2     3     4
    |-------------------------|-------------------------|-------------------------|
    |-------------
    6*----------|-------------5-----------|-------------------------|
    |-
    9-----------9-----------|-------------5-----------|-------------4-----------|
    |-
    9-----------9-----------|-5-5-5-5-5-5-5-----------|-5-----------5-----------|
    |-
    7-----------------------|-3-3-3-3-3-3-3-----------|-5-----------5-----------|
    |-
    0-----------------------|-------------------------|-3-----------------------|

      
    1     2     3     4
                 Guitar 2
    |------------[10]--[11]---|
    |-------------------------|
    |-
    7-----------------------|
    |-
    7-----------7-----8-----|
    |-
    5-----------5-----6-----|
    |-------------------------|
    (die 6* müsste aber falsch sein da)

    also über jedem takt gibt es die akkorde die dann nach der hälfte des taktes ( ) erweitert, nochmal angeschlagen werden.
    möglich dass das auf dem album mit 2 gitarren passierte. hör dir mal die Hell on Wheels version an. da spielt karl das recht deutlich. hab mal versucht es einigermaßen nachzuäffen:

    PHP:
    |-------------------------|
    |-------------------------|
    |--------------
    9----------|
    |-
    2------------9__________|
    |-
    2------------7_______7-5|
    |-
    0-000-0-0-0--0__________|

    |-------------------------|
    |--------------
    8----------|
    |-
    5------------5----------|
    |-
    5-----------------------|
    |-
    3-333-3-3-3-------------|
    |-------------------------|

    |-------------------------|
    |-------------------------|
    |--------------
    7----------|
    |-
    5------------5----------|
    |-
    5-----------------------|
    |-
    3-555-5-5-5-------------|
     
  5. DanTheMan

    DanTheMan Threadersteller Registrierter Benutzer

    Im Board seit:
    16.11.04
    Zuletzt hier:
    25.11.16
    Beiträge:
    1.342
    Ort:
    München
    Zustimmungen:
    24
    Kekse:
    1.228
    Erstellt: 16.07.06   #5
    Hum irgendwie hab ich immernoch den Eindruck das die Tabs net so ganz stimmen..... ^^
     
  6. Fastel

    Fastel Helpful & Friendly User HFU

    Im Board seit:
    11.04.04
    Zuletzt hier:
    6.12.16
    Beiträge:
    5.926
    Ort:
    Tranquility Base
    Zustimmungen:
    565
    Kekse:
    18.025
    Erstellt: 17.07.06   #6
    einfach mal nebenher mitspielen und hören. bei mir stimmts
     
  7. Slaytanic

    Slaytanic Registrierter Benutzer

    Im Board seit:
    09.09.03
    Zuletzt hier:
    4.02.15
    Beiträge:
    1.761
    Ort:
    Caparison Heaven
    Zustimmungen:
    22
    Kekse:
    2.462
    Erstellt: 17.07.06   #7
    Tut zwar nix zur Sache, aber Stormrider ist doch eine der Bands des von mir so geschätzten GUitarGurus ...


    Marcel Coenen:D :D :great:

    Marcel Coenen

    Naja ..MFG:great:
     
  8. DanTheMan

    DanTheMan Threadersteller Registrierter Benutzer

    Im Board seit:
    16.11.04
    Zuletzt hier:
    25.11.16
    Beiträge:
    1.342
    Ort:
    München
    Zustimmungen:
    24
    Kekse:
    1.228
    Erstellt: 17.07.06   #8
    Ah stimmt ... naja aber trotzdem ist der Riff bei der Stormrider Version doch bissi anders....finde ich

    Danke für die Hilfe :)
     
Die Seite wird geladen...

mapping