Tabs für den Anfang

von Tuschi, 05.05.04.

  1. Tuschi

    Tuschi Registrierter Benutzer

    Im Board seit:
    27.04.04
    Zuletzt hier:
    23.02.05
    Beiträge:
    82
    Ort:
    Berlin
    Zustimmungen:
    0
    Kekse:
    10
    Erstellt: 05.05.04   #1
    hi,

    wolte mal fragen, mit was für Tabs ihr so angefangen habt E-Gitarre zu spielen. Welche sind besonders für den Einstieg geeignet?
     
  2. dennisbieser

    dennisbieser Registrierter Benutzer

    Im Board seit:
    02.11.03
    Zuletzt hier:
    26.01.16
    Beiträge:
    953
    Ort:
    Dinslaken
    Zustimmungen:
    1
    Kekse:
    114
    Erstellt: 05.05.04   #2
    alle meine entchen, happy birthday oder auch den anfang von smoke on the water von deep purple ;) :D
     
  3. Tuschi

    Tuschi Threadersteller Registrierter Benutzer

    Im Board seit:
    27.04.04
    Zuletzt hier:
    23.02.05
    Beiträge:
    82
    Ort:
    Berlin
    Zustimmungen:
    0
    Kekse:
    10
    Erstellt: 05.05.04   #3
    ääääh.... ja.... das hat mir sehr weitergeholfen =/
     
  4. McFlash99

    McFlash99 Registrierter Benutzer

    Im Board seit:
    20.04.04
    Zuletzt hier:
    3.07.12
    Beiträge:
    301
    Ort:
    Frankfurt
    Zustimmungen:
    0
    Kekse:
    53
    Erstellt: 05.05.04   #4
    Für den Anfang ist auf jeden Fall Nirvana eine reichhaltige Anlaufstelle...Come As You Are war das erste was ich konnte, Smells Like Teen Spirit kam auch nicht viel später, dafür musst du aber Barrè können.
    Auch noch ganz am Anfang kam Alles aus Liebe von DTH.
     
  5. dennisbieser

    dennisbieser Registrierter Benutzer

    Im Board seit:
    02.11.03
    Zuletzt hier:
    26.01.16
    Beiträge:
    953
    Ort:
    Dinslaken
    Zustimmungen:
    1
    Kekse:
    114
    Erstellt: 05.05.04   #5

    oh sorry,okay hier haste was fürn anfang das ist smoke on the water von deep purple,spiel das erst mal,ist fürn anfang eigentlich ganz gut oder?


    --------------------------------------------------------
    --------------------------------------------------------
    --------------------------------------------------------
    -----------0~-------------2---0~-------------0----------
    ---0---3----------0---3--------------0---3-------3---0~~
    --------------------------------------------------------


    --------------------------------------------------------
    --------------------------------------------------------
    --------------------------------------------------------
    -----------0~-------------1---0~-------------0----------
    ---0---3----------0---3--------------0---3-------3---0~~
    --------------------------------------------------------
     
  6. AlcoholicA

    AlcoholicA Registrierter Benutzer

    Im Board seit:
    01.12.03
    Zuletzt hier:
    19.04.07
    Beiträge:
    336
    Zustimmungen:
    2
    Kekse:
    29
    Erstellt: 05.05.04   #6
    Also ich spiel das anders:

    --------------------------------------------------------
    --------------------------------------------------------
    ---0---3---5------0---3--6/5--------0---3---5---3---0-
    ---0---3---5------0---3--6/5--------0---3---5---3---0-
    --------------------------------------------------------
    --------------------------------------------------------
     
  7. nike_esp

    nike_esp Registrierter Benutzer

    Im Board seit:
    30.04.04
    Zuletzt hier:
    29.04.13
    Beiträge:
    3.054
    Zustimmungen:
    1
    Kekse:
    414
    Erstellt: 05.05.04   #7
    das war mein erstes lied ... :D
     
  8. mdc

    mdc Registrierter Benutzer

    Im Board seit:
    02.02.04
    Zuletzt hier:
    27.02.13
    Beiträge:
    302
    Ort:
    Berlin
    Zustimmungen:
    0
    Kekse:
    192
    Erstellt: 05.05.04   #8
    AlcoholicA´s Version hat mehr grooove

    :D

    Könnts mir auffer e-gitt recht lustig vorstellen, klingt aber auf ner klassischen auch ganz passabel. Aber das is ja echt baby einfach ^^
     
  9. Axel

    Axel Registrierter Benutzer

    Im Board seit:
    18.08.03
    Zuletzt hier:
    27.11.16
    Beiträge:
    545
    Zustimmungen:
    0
    Kekse:
    62
    Erstellt: 05.05.04   #9
  10. Pcorpse

    Pcorpse Registrierter Benutzer

    Im Board seit:
    16.11.03
    Zuletzt hier:
    9.04.07
    Beiträge:
    1.058
    Ort:
    Schweiz
    Zustimmungen:
    1
    Kekse:
    88
    Erstellt: 05.05.04   #10
    boomtrack von rage against the machine :cool:
     
  11. daniel.at

    daniel.at Registrierter Benutzer

    Im Board seit:
    21.01.04
    Zuletzt hier:
    26.05.11
    Beiträge:
    1.378
    Ort:
    wien, münchen
    Zustimmungen:
    3
    Kekse:
    82
    Erstellt: 05.05.04   #11
    mein erstes lied war the burning red von machine head ! ein einfacher aber echt fetter song
     
  12. kleinershredder

    kleinershredder Registrierter Benutzer

    Im Board seit:
    23.02.04
    Zuletzt hier:
    20.06.11
    Beiträge:
    2.569
    Ort:
    Kierspe
    Zustimmungen:
    8
    Kekse:
    698
    Erstellt: 05.05.04   #12
    AC/DC TNT
    Exploited SPG
     
  13. McFlash99

    McFlash99 Registrierter Benutzer

    Im Board seit:
    20.04.04
    Zuletzt hier:
    3.07.12
    Beiträge:
    301
    Ort:
    Frankfurt
    Zustimmungen:
    0
    Kekse:
    53
    Erstellt: 06.05.04   #13
    heißt das nicht bombtrack, mr. morello? :D
     
  14. Jumpy

    Jumpy Registrierter Benutzer

    Im Board seit:
    20.08.03
    Zuletzt hier:
    24.03.05
    Beiträge:
    355
    Ort:
    Bayern
    Zustimmungen:
    0
    Kekse:
    10
    Erstellt: 06.05.04   #14
    "Nothing Else Matters" und "Die My Darling" von Metallica waren meine ersten Stücke auf der E-Git :D
     
  15. sparkle

    sparkle Registrierter Benutzer

    Im Board seit:
    28.03.04
    Zuletzt hier:
    8.01.05
    Beiträge:
    62
    Ort:
    Hamburg
    Zustimmungen:
    0
    Kekse:
    17
    Erstellt: 06.05.04   #15
    Lady in Black (das waren noch Zweiten... nur 2 Akkorde im Lied und dann noch schön relaxt ein mal im Takt anschlagen... :D)


    BTW:
    Spielt ihr das als Barrée oder normal mit 2 Fingern?
    (bei mir klingts mit Barrée unsauber :()
     
  16. McFlash99

    McFlash99 Registrierter Benutzer

    Im Board seit:
    20.04.04
    Zuletzt hier:
    3.07.12
    Beiträge:
    301
    Ort:
    Frankfurt
    Zustimmungen:
    0
    Kekse:
    53
    Erstellt: 06.05.04   #16
    naja eher keins von beidem...ich drücke halt beide saiten mit dem zeigefinger runter, aber kein kompletter barre, sondern nur die beiden.
     
  17. nike_esp

    nike_esp Registrierter Benutzer

    Im Board seit:
    30.04.04
    Zuletzt hier:
    29.04.13
    Beiträge:
    3.054
    Zustimmungen:
    1
    Kekse:
    414
    Erstellt: 06.05.04   #17
    also ich spiele es mit 2 Fingern ... bei mir hat es sich Barree auch nicht sauber angehört.
     
  18. Thorn

    Thorn Registrierter Benutzer

    Im Board seit:
    03.04.04
    Zuletzt hier:
    12.06.16
    Beiträge:
    1.141
    Ort:
    Meppen
    Zustimmungen:
    1
    Kekse:
    104
    Erstellt: 06.05.04   #18
    Wie wärs mit
    For Whome The Bell Tolls
    von Metallica?
     
  19. #!ls

    #!ls Registrierter Benutzer

    Im Board seit:
    15.12.03
    Zuletzt hier:
    9.03.15
    Beiträge:
    190
    Zustimmungen:
    0
    Kekse:
    24
    Erstellt: 06.05.04   #19

    hahaha das is wohl ein bisschen falsch kollege...
    richtig geht es so :

    --------------------------------------------------------
    --------------------------------------------------------
    ---0----3-----5-------0-----3-----6--5-----------------
    ---0----3-----5-------0-----3-----6--5-----------------
    --------------------------------------------------------
    --------------------------------------------------------

    --------------------------------------------------------
    --------------------------------------------------------
    ---0----3-----5-------3----0---------------------------
    ---0----3-----5-------3----0---------------------------
    --------------------------------------------------------
    --------------------------------------------------------
     
  20. nike_esp

    nike_esp Registrierter Benutzer

    Im Board seit:
    30.04.04
    Zuletzt hier:
    29.04.13
    Beiträge:
    3.054
    Zustimmungen:
    1
    Kekse:
    414
    Erstellt: 06.05.04   #20
    ja am besten die parts von Kirk Hammett :D ! ... als anfänger tab ein bissl schwer oder ?
     
Die Seite wird geladen...

mapping