Tabs für lernvideo (van halen style tapping)

von Elma, 01.01.06.

  1. Elma

    Elma Registrierter Benutzer

    Im Board seit:
    29.03.05
    Zuletzt hier:
    27.05.16
    Beiträge:
    1.401
    Ort:
    Oberpfalz
    Zustimmungen:
    0
    Kekse:
    655
    Erstellt: 01.01.06   #1
    ich suche tabs für ein lernviedeo wo son typ mit langen schwarzen haaren n stück von bach auf seinem bass tabt...er zeigt die technik und erklärt es und geht dann voll ab...
    heißen tut das video irgendwie "eddie van halen style tapping lesson" oder so, habs bei nem kumpel gesehn...
    wär echt ne hilfe
     
  2. KingNothing`

    KingNothing` Registrierter Benutzer

    Im Board seit:
    18.01.05
    Zuletzt hier:
    23.02.15
    Beiträge:
    455
    Zustimmungen:
    0
    Kekse:
    139
  3. Elma

    Elma Threadersteller Registrierter Benutzer

    Im Board seit:
    29.03.05
    Zuletzt hier:
    27.05.16
    Beiträge:
    1.401
    Ort:
    Oberpfalz
    Zustimmungen:
    0
    Kekse:
    655
    Erstellt: 01.01.06   #3
    gut, vielen dank....
    das dürfte mich ne weile beschäftigen^^
     
  4. Opium

    Opium Registrierter Benutzer

    Im Board seit:
    25.11.03
    Zuletzt hier:
    28.05.09
    Beiträge:
    267
    Ort:
    Hildesheim
    Zustimmungen:
    0
    Kekse:
    30
    Erstellt: 02.01.06   #4
    In dem Tempo:eek: :eek:
    Ich bete für eine wiedergeburt das ich früher mit dem bassspielen beginnen kann:D
     
  5. Oliver_

    Oliver_ Registrierter Benutzer

    Im Board seit:
    15.04.05
    Zuletzt hier:
    23.11.16
    Beiträge:
    2.755
    Ort:
    Frankfurt am Main
    Zustimmungen:
    72
    Kekse:
    2.836
    Erstellt: 02.01.06   #5
    Für Interessierte: Prelude in G Major (Bach)

    Code:
    #----------------------------------PLEASE NOTE---------------------------------#
    #This file is the author's own work and represents their interpretation of the #
    #song. You may only use this file for private study, scholarship, or research. #
    #------------------------------------------------------------------------------#
    
    
    Prelude in G Major - Johann Sebastian Bach
    
    Here's the slightly modified version of the original piece for Cello.
    Feel free to change any fingering or positions as you see fit.
    Gets a little cramped around the 24th fret (did I mention you nee 24 frets)
    Stick with it and you'll be impressing your friends in no time.
    
    
    G-------16-15-16----16----------16-15-16----16----|-------17-16-17----17----------17-16-17----17----|
    D-------------------------------------------------|----14----------14----14----14----------14----14-|
    A----17----------17----17----17----------17----17-|-------------------------------------------------|
    E-15----------------------15----------------------|-15----------------------15----------------------|
    
    G-------17-16-17----17----------17-16-17----17----|-------16-15-16----16----------16-15-16----16----|
    D----16----------16----16----16----------16----16-|----17----------17----17----17----------17----16-|
    A-------------------------------------------------|-------------------------------------------------|
    E-15----------------------15----------------------|-15----------------------15----------------------|
    
    G-------16-15-16----------------------------------|-------14----14----14----------14----14----14----|
    D----14----------17-16-17-15-17-16-17----12-11----|----17----17----17----17----17----17----17----17-|
    A-------------------------------------14-------14-|-16----------------------16----------------------|
    E-15----------------------------------------------|-------------------------------------------------|
    
    G----14-19-18-19-14----14----14----14-------------|-------12-11-12----12----------12-11-12----12----|
    D-16----------------17----16----17-------16-14----|-------------------------------------------------|
    A-------------------------------------17-------17-|----14----------14----14----14----------14----14-|
    E-------------------------------------------------|-12----------------------12----------------------|
    
    G----------8-----------------------19-18-16-14----|----------19-14-19----14-------11-14-12-11-------|
    D----10-11----11-10-------17-16-14-------------17-|-16-14-------------16----12-14-------------14-12-|
    A-------------------13-11-------------------------|-------17----------------------------------------|
    E-11----------------------------------------------|-------------------------------------------------|
    
    G-13----------------13----16----------------13----|-------14-16-17-14-------------14-16-17-14-------|
    D----12-14^13-14-12----12----12-14^13-14-12----12-|----14-------------14-------14-------------16-14-|
    A-------------------------------------------------|-15-------------------17-15----------------------|
    E-------------------------------------------------|-------------------------------------------------|
    
    G-------------14----14----------------14----14----|-12-11----12-11-12-14-11-12-11-------------------|
    D----16----16----16----16----16----16----16----16-|-------14----------------------14-12-------------|
    A-18----18----------------18----18----------------|-------------------------------------15-14-12-10-|
    E-------------------------------------------------|-------------------------------------------------|
    
    G-------7-----7-----7-----------7-----7-----7-----|-------10-9-10----10------------10-9-10----10----|
    D----10----10----10----10----10----10----10----10-|----9-----------9----9-------9-----------9----9--|
    A-9-----------------------9-----------------------|-10----------------------10----------------------|
    E-------------------------------------------------|-------------------------------------------------|
    
    G-------------------------------------------------|-------17-16-17----17----------17-16-17----17----|
    D-------14----14----14----------14----14----14----|----16----------16----16----16----------16----16-|
    A----15----17----15----15----15----17----15----15-|-------------------------------------------------|
    E-15----------------------15----------------------|-15----------------------15----------------------|
    
    G-------16-14-16-12-11----------------------------|----------11-12----11-12----------11-12----11-12-|
    D----------------------14-12----------------------|-------14-------14-------------14-------14-------|
    A----17----------------------15-14-12-------------|----12----------------------12-------------------|
    E-15----------------------------------15-14-12-10-|-9-----------------------9-----------------------|
                                                                          (*) 
    G----------9-11-----9-11-----------9-11-----9-11--|-------------14-18-19----------------------11-12-|
    D-------12-------12-------------12-------12-------|-------12-16-------------------------12-14-------|
    A----10----------------------10-------------------|----10----------------------12-14-15-------------|
    E-8-----------------------8-----------------------|-8-----------------------------------------------|
    
    G-14-11-------11-12-14-16-17-14-------14-16-17-19-|-20-19-18-19-19-17-16-17-17-14-11----------------|
    D-------12-14-------------------16-17-------------|----------------------------------14-12----------|
    A-------------------------------------------------|----------------------------------------12-14-15-|
    E-------------------------------------------------|-------------------------------------------------|
    
    G----------11-14-16-17-14-16----------------------|-------------12-14-16-12-18-15-14-15-15-14-13-14-|
    D-------12-------------------17-12----------------|----------12-------------------------------------|
    A----12----------------------------15-14-10-12-14-|----10-14----------------------------------------|
    E-10----------------------------------------------|-10----------------------------------------------|
    
    G-14-12-11-12-12-------------------12-14-18-19-18-|-19-------------14----11-------------------------|
    D----------------14-11----------14----------------|----19-16-14-16----12-------12-11----------------|
    A----------------------14-12-16-------------------|-------------------------12-------14-12-10-------|
    E-------------------------------------------------|-------------------------------------------14-12-|
     (*) 
    G-------17-16-14-------------17-16-14-------------|----16-14-------------------14-12-11-------------|
    D----------------17-16-14-------------17-16-14----|----------17-16-14-------------------14-12-------|
    A-------------------------17-------------------17-|-15----------------17-15-14----------------15-14-|
    E-10----------------------------------------------|-------------------------------------------------|
    
    G----12-11-------14----14----14----14----14----14-|----14----14----14----14----14----14----14----14-|
    D----------14-16----12----14----16----17----14----|-16----12----17----14----16----12----17----14----|
    A-12----------------------------------------------|-------------------------------------------------|
    E-------------------------------------------------|-------------------------------------------------|
    
    G----14----14----14----14----14----14-16-14----14-|----14-16-14-17-14----14-16-14-17-14-19-14-16-14-|
    D-16----12----14----16----17----19----------------|-19----------------------------------------------|
    A-------------------------------------------17----|-------------------17----------------------------|
    E-------------------------------------------------|-------------------------------------------------|
    
    G-17-14-16-14-17-14----14-16-14----14-16-14----14-|----14----14----14----14----14----14----14----14-|
    D-------------------19----------19----------17----|-19----17----19----16----17----16----17----14----|
    A-------------------------------------------------|-------------------------------------------------|
    E-------------------------------------------------|-------------------------------------------------|
    
    G----14-------------------------------14----15----|-16----17----18----19----20----21----22----23----|
    D-16----12-14-15----16----17----18----------------|-------------------------------------------------|
    A----------------17----17----17----17----17----17-|----17----17----17----17----17----17----17----17-|
    E-------------------------------------------------|-------------------------------------------------|
    
    G-24----------24----24----24----------24----24----|-24----------24----24----24----------24----24----|
    D----21----21----21----21----21----21----21----21-|-------------------------------------------------|
    A-------------------------------------------------|----24----24----24----24----24----24----24---24--|
    E-------22----------------------22----------------|-------22----------------------22----------------|
        (*)
    G-23----------23----23----23----------23----23----|-24----------------------------------------------|
    D----22----22----22----22----22----22----22----22-|-21----------------------------------------------|
    A-------------------------------------------------|-22----------------------------------------------|
    E-------22----------------------22----------------|-------------------------------------------------|
     
  6. Joosten

    Joosten Registrierter Benutzer

    Im Board seit:
    30.10.05
    Zuletzt hier:
    8.09.13
    Beiträge:
    377
    Ort:
    4sen
    Zustimmungen:
    0
    Kekse:
    171
    Erstellt: 02.01.06   #6
    Oh ja - das *rockt*:great:
    Hab ich auch mit meinem Basslehrer durchgekaut!
     
  7. domek

    domek Registrierter Benutzer

    Im Board seit:
    05.07.05
    Zuletzt hier:
    7.12.12
    Beiträge:
    158
    Zustimmungen:
    0
    Kekse:
    10
    Erstellt: 02.01.06   #7
    hmm ich will au noch des video als link !! PLZ :D
     
  8. Oliver_

    Oliver_ Registrierter Benutzer

    Im Board seit:
    15.04.05
    Zuletzt hier:
    23.11.16
    Beiträge:
    2.755
    Ort:
    Frankfurt am Main
    Zustimmungen:
    72
    Kekse:
    2.836
    Erstellt: 02.01.06   #8
    Ohja, geil. Leersaiten-Tapping :great:
     
  9. JasonNewsted

    JasonNewsted Registrierter Benutzer

    Im Board seit:
    11.11.05
    Zuletzt hier:
    13.07.10
    Beiträge:
    165
    Zustimmungen:
    0
    Kekse:
    10
    Erstellt: 03.01.06   #9
    nicht schlecht :rolleyes:

    ich auch :(
     
Die Seite wird geladen...

mapping