Tabs Zeichenerklärung

von Käse, 16.04.07.

  1. Käse

    Käse Registrierter Benutzer

    Im Board seit:
    31.01.06
    Zuletzt hier:
    1.11.09
    Beiträge:
    23
    Zustimmungen:
    0
    Kekse:
    10
    Erstellt: 16.04.07   #1
    Kann Mir jemand sagen was die Zeichen in den Tabs bedeuten, dieses X und h?
    Bsp: RATM Killing In The Name Of

    Verse:
    G|---------------------------------|
    D|------------3h4------------------| X12
    A|----3h5----------5---------------|
    D|-0------X-X---------0----2h3-2---|

    Chorus:
    G|-------------------------------------------------------------------------|
    D|-----------------9----------------8-------------------7------------------|
    A|------3h5--------------3h5-----------------3h5---------------------------|
    D|--0--------X-X-----0--------X-X--------0--------X-X-------0---2h3-2h3-2--|

    Danke schonmal!!

     
  2. Gnomine

    Gnomine Mod Emeritus Ex-Moderator

    Im Board seit:
    21.09.04
    Zuletzt hier:
    19.08.16
    Beiträge:
    1.344
    Ort:
    8. Kontinent
    Zustimmungen:
    1
    Kekse:
    3.056
  3. Ryknow

    Ryknow Registrierter Benutzer

    Im Board seit:
    18.01.06
    Zuletzt hier:
    18.08.15
    Beiträge:
    4.640
    Ort:
    Zuhause
    Zustimmungen:
    730
    Kekse:
    10.700
    Erstellt: 16.04.07   #3
    x = dead note
    h = hammer on
    p = pull off
    / oder \ = slide

    das sind wohl die wichtigsten..
     
  4. -Martin-

    -Martin- Helpful & Friendly User HFU

    Im Board seit:
    14.01.06
    Zuletzt hier:
    5.12.15
    Beiträge:
    2.654
    Ort:
    Dusty Hill
    Zustimmungen:
    437
    Kekse:
    13.491
    Erstellt: 18.04.07   #4
    Tach, noch n kleiner Tip von mir,

    Chorus:
    G|--------------------------------------------------------------------------------|
    D|-----------------9---------------8-------------------7-------------------------|
    A|------3h5--------------3h5-----------------3h5-------------------------------|
    D|--0--------X-X-----0--------X-X--------0--------X-X-------0---2h3-2h3-2--|

    Die Noten auf der D saite würd ich auf die G Saite verschieben, ist ja blöd so, musst immer den halben Hals hochgehn, ich spiel es so:

    Chorus:
    G|-----------------4----------------3--------------------2-------------------|
    D|-------------------------------------------------------------------------|
    A|------3h5--------------3h5-----------------3h5---------------------------|
    D|--0--------X-X-----0--------X-X--------0--------X-X-------0---2h3-2h3-2--|

    Wobei du beim letzten dann den rot markierten nicht mitm ersten, sondern mit dem zweiten Finger spielst, sonst haste n Knoten im Finger.

    Ich finds so deutlich einfacher, musste mal testen.
     
  5. Happystillbirth

    Happystillbirth Registrierter Benutzer

    Im Board seit:
    06.04.07
    Zuletzt hier:
    31.05.11
    Beiträge:
    108
    Ort:
    Immenstadt(oberallgäu)
    Zustimmungen:
    0
    Kekse:
    95
    Erstellt: 29.04.07   #5
    um das ganze noch zu erweitern

    nh = naturel hamonics
    ph = pinch hamonics

    nich wirklich geläufig aber gibts auch
     
Die Seite wird geladen...

mapping