Tabulatur lernen

von dennisbieser, 09.02.04.

  1. dennisbieser

    dennisbieser Registrierter Benutzer

    Im Board seit:
    02.11.03
    Zuletzt hier:
    26.01.16
    Beiträge:
    953
    Ort:
    Dinslaken
    Zustimmungen:
    1
    Kekse:
    114
    Erstellt: 09.02.04   #1
    Wie kann man Tabs lernen? gibts ne seite wo das gut erklärt steht,da ich noch nicht so lange spiele und tabs noch nicht so behersche.....wäre nett wenn mir jemand helfen könnte,thx ^^
     
  2. Fis

    Fis Registrierter Benutzer

    Im Board seit:
    25.12.03
    Zuletzt hier:
    25.02.04
    Beiträge:
    161
    Zustimmungen:
    0
    Kekse:
    10
    Erstellt: 09.02.04   #2
    Da gibts nicht viel zu lernen. Die unterste Linie stellt die tiefe E-Saite dar, die oberste die hohe e-Saite:

    [code:1]

    ------------------------------------
    ------------------------------------
    ------------------------------------
    ------------------------------------
    ------2---2---5\7----------------------
    --00--0---0---------6-5-------------------

    [/code:1]


    Das bedeutet z.B. spiele die E-Saite 2x leer (0), dann leere
    E-Saite + dem h auf der A-Saite im zwieiten Bund usw.
    5\7 -> Slide (also rutsche von 5. Bund A.-S. zu 7. Bund A.-S.)
    usw.

    Doof ist nur das die Notenlänge fehlt, da muss man halt nach Gehör spielen.

    Noten sind schon besser...
     
  3. Fis

    Fis Registrierter Benutzer

    Im Board seit:
    25.12.03
    Zuletzt hier:
    25.02.04
    Beiträge:
    161
    Zustimmungen:
    0
    Kekse:
    10
    Erstellt: 09.02.04   #3
  4. dennisbieser

    dennisbieser Threadersteller Registrierter Benutzer

    Im Board seit:
    02.11.03
    Zuletzt hier:
    26.01.16
    Beiträge:
    953
    Ort:
    Dinslaken
    Zustimmungen:
    1
    Kekse:
    114
    Erstellt: 09.02.04   #4
    vielen dank ^^ sowas versteh ich aber glaub nicht hab da was bei google gefunden von smoke on the water

    E E E E E E E E E-S-S-E E E E E E E E E--S-E--S-E
    |-------------------------|------------------------|---------------\--/-----|
    |-------------------------|------------------------|----------------\/------|
    |----------5-----8--7--5--|-3fr-(3)~~~~-5--3--2--3-|-2--3--2--0-----(0)-----|
    |-5--8--7-----8-----------|------------------------|------------------------|
    |-------------------------|------------------------|------------------------|
    |-------------------------|------------------------|------------------------|
    . . . . . . . . > . . . . . . . > (drop pitch
    2.5 steps with
    trem and return
    to pitch)

    behind Gradual Gradual
    beat--| 3 Bend Bend
    S S S S S S S S S S S S S S E [Q Q Q] Q E E E E E E E Q--E
    |-----3h--3-3-------------------|-----------------------|-3--------3--6--8f---|
    |---3---6h----6-5p3-------------|------------------3--6-|----3--6-------------|
    |-5f----------------6p5-3---5-3-|-5f--5f--5f--5f--------|---------------------|
    |-------------------------5-----|-----------------------|---------------------|
    |-------------------------------|-----------------------|---------------------|
    |-------------------------------|-----------------------|---------------------|

    was soll denn das h daneben oder so heißen ?
    > . . . . . . . . . . . . .
     
  5. dennisbieser

    dennisbieser Threadersteller Registrierter Benutzer

    Im Board seit:
    02.11.03
    Zuletzt hier:
    26.01.16
    Beiträge:
    953
    Ort:
    Dinslaken
    Zustimmungen:
    1
    Kekse:
    114
    Erstellt: 09.02.04   #5
    hmm das verwirrt etwas wie kann man das denn spielen is doch schwer.... und was heißt das eigentlich "-------" ?

    |-------------------
    |-------------------
    |-------------------
    |----5--------------
    |----5----------10\-
    |----3-------------
     
  6. TheSleeper

    TheSleeper Registrierter Benutzer

    Im Board seit:
    04.12.03
    Zuletzt hier:
    26.04.05
    Beiträge:
    172
    Zustimmungen:
    0
    Kekse:
    10
    Erstellt: 09.02.04   #6
    ----- heisst das die Saite nicht angeschlagen wird.

    Ich hol mir Tabs aber lieber für Powertabs. Dafür gibt es eine Menge guter Tabs, es ist wesentlich übersichtlicher und man kann es sich auch vorspielen lassen, mit den Tabs wie den obigen komme ich auch nicht sondelrich gut zurecht.

    http://www.power-tab.net/downloads.php
    Um es runterzuladen (Power Tab Editor v1.7)

    http://www.powertabs.net/
    Für die Tabulaturen dazu...
     
  7. dennisbieser

    dennisbieser Threadersteller Registrierter Benutzer

    Im Board seit:
    02.11.03
    Zuletzt hier:
    26.01.16
    Beiträge:
    953
    Ort:
    Dinslaken
    Zustimmungen:
    1
    Kekse:
    114
    Erstellt: 09.02.04   #7
    wie kann man sowas spielen...??????????? is das nicht schwer? oder seh ich das falsch wie das gespielt sein soll...


    Gtr1:

    |------------------------------------------|
    |------------------------------------------|
    |--5--5--5--5--5----8---10---------------|
    |--5--5--5--5--5----8---10---------------|
    |--3--3--3--3--3----6----8-----------------|
    |------------------------------------------|
     
  8. RickMcPhail

    RickMcPhail Registrierter Benutzer

    Im Board seit:
    04.12.03
    Zuletzt hier:
    2.04.12
    Beiträge:
    93
    Ort:
    München
    Zustimmungen:
    0
    Kekse:
    10
    Erstellt: 09.02.04   #8
    Ich glaub, du verstehst was falsch. :D
    Du legst einfach Ring- und Mittelfinger im fünften Bund auf die dritte und vierte Saite, dann den Zeigefinger im dritten Bund auf die fünfte Saite, schlägst fünfmal die drei Saiten an, die du gerade greifst.
    Schiebst dann diesen Griff unverändert drei Bünde Richtung Korpus, schlägst an, und nochmal zwei weitere Bünde Richtung Korpus und schlägst nochmal an.
    Nicht wiiiirklich schwer, oder? ;)
     
  9. roastbeef

    roastbeef Registrierter Benutzer

    Im Board seit:
    30.11.03
    Zuletzt hier:
    25.07.16
    Beiträge:
    3.424
    Ort:
    Graz
    Zustimmungen:
    72
    Kekse:
    4.088
    Erstellt: 09.02.04   #9
    jop
    einfach richtige handposition (das sind einfache powerakkorde die in fast jedem rocksong vorkommen)
     
  10. dennisbieser

    dennisbieser Threadersteller Registrierter Benutzer

    Im Board seit:
    02.11.03
    Zuletzt hier:
    26.01.16
    Beiträge:
    953
    Ort:
    Dinslaken
    Zustimmungen:
    1
    Kekse:
    114
    Erstellt: 09.02.04   #10
    ich glaub irgendwie mach ich mir das schwerer als es wirklich ist,aber meine finger sind nicht so lang das ich da greifen kann und dann da :?
     
  11. Masterplan

    Masterplan Registrierter Benutzer

    Im Board seit:
    08.01.04
    Zuletzt hier:
    16.10.13
    Beiträge:
    184
    Zustimmungen:
    2
    Kekse:
    10
    Erstellt: 09.02.04   #11
    E|------------------------------------------|
    H|------------------------------------------|
    G|------------------------------------------|
    D-Saite |--5 (5.Bund mit kleinem Finger)
    A-Saite |--5 (5.Bund mit Ringfinger)
    E-Saite |--3 (3.Bund mit Zeigefinger)

    Also, ich kann mir nicht vorstellen, dass deine Finger für nen normalen Powerchord zu klein sind! Meine sind ja schon klein, aber durch Üben dürfte dies echt kein Problem darstellen.

    P.S.: Wenn die Zahlen nebeneinander stehen, dann spielt man sie nacheinander
     
Die Seite wird geladen...

mapping