Thé wicker man

von TimothyMcFadden, 24.01.05.

  1. TimothyMcFadden

    TimothyMcFadden Registrierter Benutzer

    Im Board seit:
    03.12.04
    Zuletzt hier:
    6.04.14
    Beiträge:
    1.013
    Zustimmungen:
    0
    Kekse:
    16
    Erstellt: 24.01.05   #1
    Hallo wollte fragen ob einer von euch die richtigen solotabs aus dem buch für the wickerman von iron maiden!??? Danke
     
  2. Trailblazer

    Trailblazer Registrierter Benutzer

    Im Board seit:
    12.09.04
    Zuletzt hier:
    28.04.08
    Beiträge:
    154
    Ort:
    Bamberg
    Zustimmungen:
    0
    Kekse:
    24
    Erstellt: 24.01.05   #2
    aus dem buch ahb ich die nicht, aber die Guitar Pro files von www.mysongbook.com sind wohl alle richtig, spiele ich selbst auch.

    hier eins von mxtabs.net:

    Solo 1
    -----------------------------------------------
    -----------------------------------------------
    -----------------------------------------------
    ------------------------7----7-9-7-9-10-9-7----
    --7--7-9-10-7----7-9-10---10----------------10-
    -----------------------------------------------

    ---------------14-12-0-15-14-0-17-15-0-17-15-----
    ---------------------------------------------17--
    -------------------------------------------------
    -------------------------------------------------x2
    --7--7-9-10-7------------------------------------
    -------------------------------------------------


    ------------------10----7---7----7---7---------------------------------
    --12v--12v--12v------10---8---10---8---10-------------10bF-10-10-8-10-8
    -------------------------------------------9--9---8v-------------------
    -----------------------------------------------------------------------
    -----------------------------------------------------------------------
    -----------------------------------------------------------------------


    ----------------------------------------------------------------------
    ---------------------------------------------4h7p4h7p4h7p4h7p4h7------
    -9-8-9-8-9-8vv--------------------------------------------------------
    ---------------------7---------9-7------------------------------------
    ----------------7-10---10-7-10-----10-7-6-----------------------------
    ----------------------------------------------------------------------


    ----------------------------------------------------------------------
    ----5h8p5h8p5h8p5h8p5h8p5h8------4h7p4h7p4h7p4h7p4h7p4h7--------------
    ----------------------------------------------------------------------
    ----------------------------------------------------------------------
    ----------------------------------------------------------------------
    ----------------------------------------------------------------------


    -----------------------------------------17-19-20-19-17----17---------
    --7h10p7h10p7h10p7h10p7h10---------19-20----------------20------------
    ----------------------------------------------------------------------
    ----------------------------------------------------------------------
    ----------------------------------------------------------------------
    ----------------------------------------------------------------------


    -------------17--------------------------17-19-20-19-17----17------------
    -19-17-19-20----20-19-17-19-17-16--19-20----------------20----19-17-16-16
    -------------------------------------------------------------------------
    -------------------------------------------------------------------------
    -------------------------------------------------------------------------
    -------------------------------------------------------------------------

    -------------
    -------------
    --16-16v-----
    -------------x1
    -------------
    -------------




    das spiel ich auch und es hört sich ziemlich genau so an, find ich
     
  3. redruM

    redruM Registrierter Benutzer

    Im Board seit:
    21.02.04
    Beiträge:
    379
    Zustimmungen:
    0
    Kekse:
    90
    Erstellt: 24.01.05   #3
    naja die tabs über mir sind schonma falsch, weil die duenne leersaite 2ma zwischen den abgezogenen noten kommt. schau ma unter powertabs.com. da gibts das auch noch.
    das eigentliche solo scheint mir ein ziemliches gemetzel und ich bezweifle, dass dies einer genau raushoeren kann..
     
  4. LoneLobo

    LoneLobo Mod Emeritus Ex-Moderator HCA

    Im Board seit:
    13.04.04
    Zuletzt hier:
    25.11.16
    Beiträge:
    8.457
    Ort:
    Österreich
    Zustimmungen:
    138
    Kekse:
    22.219
    Erstellt: 24.01.05   #4
    Jepp.

    Bei powertabs is ne Version, bei der einer sagt, dass es wahnsinn is, das Solo rauszuhören, dass aber derjenige, von dem der Tab stammt, das wirklich gut hinbekommen hat.

    Also schau dir mal das Ding von powertabs an.
     
  5. redruM

    redruM Registrierter Benutzer

    Im Board seit:
    21.02.04
    Beiträge:
    379
    Zustimmungen:
    0
    Kekse:
    90
    Erstellt: 24.01.05   #5
    jau. glaub den tab hab ich auch. nur frag mich nicht ob das auch so stimmt ;).
    der adrian weiss gewiss au schon net mehr was er da gespielt hat ;)
     
Die Seite wird geladen...

mapping