Nothing else Matters "easy"

  • Ersteller -=FREAK=-
  • Erstellt am
-=FREAK=-
-=FREAK=-
Registrierter Benutzer
Zuletzt hier
19.12.05
Registriert
03.11.03
Beiträge
14
Kekse
0
Ort
Rottweil
Wohl jeder der mal ne Gitarre in der Hand hatte, kann Nothing else Matters spielen oder :D
Von den folgenden Tabs (kommen ziehmlich am Anfang vom Lied) gibt es aber auch noch ne "einfache" Variante in den ersten 3 Bünden oder?!?
Kann mir die mal jemand posten?
Danke :)

e--------(0)-----------------------(0)-----------------
B---------8-------7------5----------8-------7------5---
G-------9---------7------5--------9---------7------5---
D-----9---------7------5--------9---------7------5-----
A---7---------5------3--------7---------5------3-------
E---------------------------0--------------------------

Em
e-----------7----5--------3--------3--------2--------------0--------0---
B-----------8------7--------5--------3--------4----------0---0------0---
G---------9----------7--------5--------4--------2-(p0)-0-------0----0---
D-------9-----------------------------------------------------------2---
A-----7--------------------------3--------2-------------------------2---
E---0----------5--------3----------------------------0-----------0--0---


Also die oben, mit Standartakkorden in den ersten Bünden...wisst schon was ich mein oder :great:
 
Eigenschaft
 
msoada
msoada
Mod Emeritus
Ex-Moderator
Zuletzt hier
21.09.15
Registriert
08.05.05
Beiträge
4.489
Kekse
5.974
Ort
Belgrad
Ich mien da ses davon keine einfachere Fassung gibt, das mit den ersten drei Bünden kommt dann doch erst im Vers,w enn James singt?
 
AndreasW
AndreasW
Registrierter Benutzer
Zuletzt hier
08.10.14
Registriert
16.05.05
Beiträge
1.455
Kekse
2.973
Ort
Hamburg
Was gibt es einfacheres als Powerchords?
Du könntest aber einfach statt der Pc die Standardakkorde Em, D, C, G, usw. mit dem entsprechenden Picking spielen, klingt dann aber etwas mehr nach Lagerfeuer.:D


Andreas
 
C
collazo
Registrierter Benutzer
Zuletzt hier
11.04.10
Registriert
18.08.03
Beiträge
304
Kekse
44
Ort
Miltenberg
AndreasW schrieb:
Du könntest aber einfach statt der Pc die Standardakkorde Em, D, C, G, usw. mit dem entsprechenden Picking spielen, klingt dann aber etwas mehr nach Lagerfeuer.:D
Andreas
Genau das hab ich am Anfang auch immer gemacht. Man kann diese auch ähnlich zupfen. Klingt auch nicht schlecht.
 
-=FREAK=-
-=FREAK=-
Registrierter Benutzer
Zuletzt hier
19.12.05
Registriert
03.11.03
Beiträge
14
Kekse
0
Ort
Rottweil
Hab das jetzt schon paar mal an irgendnem Lagerfeuer gesehn wie Leute das mit Standartakkorden gespielt haben :D
Ist im Suff nun mal einfacher....*g*

Wär das dann echt nur Em, D, C, G und sonst nix?!?

Danke mal nebenbei Leute ;)
 
AndreasW
AndreasW
Registrierter Benutzer
Zuletzt hier
08.10.14
Registriert
16.05.05
Beiträge
1.455
Kekse
2.973
Ort
Hamburg
-=FREAK=- schrieb:
Hab das jetzt schon paar mal an irgendnem Lagerfeuer gesehn wie Leute das mit Standartakkorden gespielt haben :D
Ist im Suff nun mal einfacher....*g*

Wär das dann echt nur Em, D, C, G und sonst nix?!?

Danke mal nebenbei Leute ;)
Nee, es sind noch ein paar Akkorde mehr.
In loser Reihenfolge:
Em, D, C, G, A, H7, Dsus4, Dsus2.
Wobei man auch für die Dsus4 und Dsus2 einfach D spielen könnte.
Dann gehen zwar ein paar Akzente verloren, aber das stört am "Lagerfeuer" wohl niemanden.


Andreas
 
Stoli
Stoli
Registrierter Benutzer
Zuletzt hier
06.04.15
Registriert
25.04.05
Beiträge
1.345
Kekse
1.389
Ort
Amberg
Spiels halt so:

E|-------------7-----------|-------------|-------------7-----------|
B|-------------8-----------|-----7-----5-|-------------8-----------|
G|-----------9-------------|-----7-----5-|-----------9-------------|
D|---------9---------------|---7-----5---|---------9---------------|
A|-------7-----------------|-5-----3-----|-------7-----------------|
E|-0-----------------------|-------------|-0-----------------------|

E -------------|-------------7-----------|-------------------------|
B-----7-----5-|-------------8-----------|--------7-----------5----|
G-----7-----5-|-----------9-------------|--------7-----------5----|
D---7-----5---|---------9---------------|-----7-----------5-------|
A-5-----3-----|-------7-----------------|-5-----------3-----------|
E -------------|-0-----------------------|-------------------------|

E ---------------------|-------0-----|-------0-----|
B-------3---------4---|-----0---0---|-----0---0---|
G-------4---------2---|---0-------0-|---0-------0-|
D-----5---------4-----|-------------|-------------|
A -----------2---------|-------------|-------------|
E -3-------------------|-0-----------|-0-----------|
 
schl8roof
schl8roof
Registrierter Benutzer
Zuletzt hier
13.08.07
Registriert
21.09.05
Beiträge
20
Kekse
27
Ort
Mittelhessen
möglichst weit "runter geschoben" dürfte das wohl so aussehen (sind dann auch fast immer standartakkorde):

Em D C Em D C Em
E|-------0-7-|-----2-----0-|-------0-7-|-----2-----0-|-------0-7-|
B|-----0---8-|-----3-----1-|-----0---8-|-----3-----1-|-----0---8-|
G|-----------|---2-----0---|-----------|---2-----0---|-----------|
D|---2-------|-0-----------|---2-------|-0-----------|---2-------|
A|-----------|-------3-----|-----------|-------3-----|-----------|
E|-0---------|-------------|-0---------|-------------|-0---------|

D C G B7 Em
E|---5-2-----3-0---|---3-------2-----|-0-----0-----|-0-----0-----|
B|-------3-------1-|-----3-0-----4---|-----0---0---|-----0---0---|
G|-----------------|---------------2-|---0-------0-|---0-------0-|
D|-0---------------|-----------------|-2-----------|-------------|
A|---------3-------|---------2-------|-------------|-------------|
E|-----------------|-3---------------|-------------|-------------|
 
O
OFFFI
Gesperrter Benutzer
Zuletzt hier
10.01.07
Registriert
30.06.04
Beiträge
2.968
Kekse
1.152
Stoli schrieb:
Spiels halt so:

E|-------------7-----------|-------------|-------------7-----------|
B|-------------8-----------|-----7-----5-|-------------8-----------|
G|-----------9-------------|-----7-----5-|-----------9-------------|
D|---------9---------------|---7-----5---|---------9---------------|
A|-------7-----------------|-5-----3-----|-------7-----------------|
E|-0-----------------------|-------------|-0-----------------------|

E -------------|-------------7-----------|-------------------------|
B-----7-----5-|-------------8-----------|--------7-----------5----|
G-----7-----5-|-----------9-------------|--------7-----------5----|
D---7-----5---|---------9---------------|-----7-----------5-------|
A-5-----3-----|-------7-----------------|-5-----------3-----------|
E -------------|-0-----------------------|-------------------------|

E ---------------------|-------0-----|-------0-----|
B-------3---------4---|-----0---0---|-----0---0---|
G-------4---------2---|---0-------0-|---0-------0-|
D-----5---------4-----|-------------|-------------|
A -----------2---------|-------------|-------------|
E -3-------------------|-0-----------|-0-----------|


so spiel ichs ^^ allerdings mit mehr zwischentönen im Dream Theater Remix. Und in der Rockabilly version auch. Normal so wie ganz oben beschrieben :great:
 
schl8roof
schl8roof
Registrierter Benutzer
Zuletzt hier
13.08.07
Registriert
21.09.05
Beiträge
20
Kekse
27
Ort
Mittelhessen
jo, so spiel ichs auch. anfangs hatte ich aber mal noten vom schwarzen album in die hand bekommen und mir die umgesetzt, da kam dann das von meinem vorherigen post raus. außerdem konnte ich damals eh noch kein barrée (wie auch immer das geschrieben wird ^^) also war das so auch einfacher (nach meinem empfinden).
 
black coffee
black coffee
Registrierter Benutzer
Zuletzt hier
01.11.12
Registriert
03.01.05
Beiträge
797
Kekse
-5
zu dem muss ich mal was sagen, ich hab mal noturno (spanische romanez ) gespielt, die klingt ja fast gleich wie nothing else matters
 
schl8roof
schl8roof
Registrierter Benutzer
Zuletzt hier
13.08.07
Registriert
21.09.05
Beiträge
20
Kekse
27
Ort
Mittelhessen
black coffee schrieb:
zu dem muss ich mal was sagen, ich hab mal noturno (spanische romanez ) gespielt, die klingt ja fast gleich wie nothing else matters

kennt ihr johnny cash - hurt?

der spielt immer
am - c - d
und zwar genauso wie in diesem teil aus nothing else matters.
naja, nur so ähnlich ^^...hat mich aber auch stark daran erinnert

E|------0----|-----0-----2-|
B|------1----|-----1-----3-|
G|------2----|-----0---2---| und als wieder (bis zum refrain)
D|----2------|---2---0-----|
A|--0--------|-3-----------|
E|-----------|-------------|
 
Tonic
Tonic
Registrierter Benutzer
Zuletzt hier
12.01.07
Registriert
19.03.05
Beiträge
765
Kekse
199
Ort
Leverkusen
Üb es doch einfach so wie es ist. Das ist nicht schwer haste schnell raus.
 
-=FREAK=-
-=FREAK=-
Registrierter Benutzer
Zuletzt hier
19.12.05
Registriert
03.11.03
Beiträge
14
Kekse
0
Ort
Rottweil
Stimmt...jetzt wo dus sagst...Hurt erinnert echt bissle dran :) Saugeiles Lied, mal so nebenbei!!!

Hmmm...ich setzt mich erstmal an die einfache Version von dir schl8roof, da ich auch noch ned so der Held bin und Barée auch ned meine Stärke ist ;)
Außerdem spiel ich eh nur Westerngitarre...und da find ich powerchors und barées ned sooo einfach :p ähhmmm...egal! :D
 
Maverick018
Maverick018
Registrierter Benutzer
Zuletzt hier
03.02.19
Registriert
02.11.03
Beiträge
1.553
Kekse
373
Ort
Markgröningen
Ich will das Lied bestimmt nicht auf was weiß ich für einen Level setzen, aber dass das jeder spielen kann, der schonmal einmal eine Gitarre in der Hand hatte, will ich doch mal stark bezweifeln. ;)
Vor allem, wenn es Original (Fingerpicking) und nicht mit Akkorden gespielt wird.
 
N!tro
N!tro
Registrierter Benutzer
Zuletzt hier
20.10.08
Registriert
03.04.05
Beiträge
179
Kekse
36
Ort
fd
schl8roof schrieb:
kennt ihr johnny cash - hurt?[...]

Hurt ist geil, aber leider nicht von Cash, der hats "nur" gecovert, aber ziemlich gut, wie ich finde.
Das Original ist von Nine Inch Nails, ich finde die Cash Version kommt nicht ganz so authentisch und atmosphärisch rüber, wie die "richtige". Da wird die Melodie mit nem Klavier gespielt und auf der Klampfe nur Akkorde.

@Maverick018: Joa, ich glaube auch nicht, dass jeder der mal ne Klampfe in der Hand hatte NEM spielen kann. Vielleicht allenfalls etwas holprig so die ersten 20-25 Takte aber viel weiter hätte ichs glaubich in den ersten Monaten klampfen noch nicht auf die Reihe gekriegt. Hab mich auch erst seit ein paar Tagen mal mit dem Lied auseinandergesetzt und mittlerweile klappts einigermaßen. Das Solo hatte ich irgendwann schonmal gelernt, weil mir das so gut gefallen hat und jetzt will ich den "Rest" von dem Lied mal in mein (leider noch ziemlich kleines) Akustik Repertoir aufnehmen ;)
 
-=FREAK=-
-=FREAK=-
Registrierter Benutzer
Zuletzt hier
19.12.05
Registriert
03.11.03
Beiträge
14
Kekse
0
Ort
Rottweil
Naja gut ;) Mein die erste Minute werden aber einige hinbekommen...nur ich nicht ab der Stelle an der ich Barée brauch :rolleyes: *zumthemazurückwill*

btw: find die version von Cash aber geiler...hat mehr "Feeling" find ich :)
 

Ähnliche Themen


Neue Themen

Unser weiteres Online-Angebot:
Bassic.de · Deejayforum.de · Sequencer.de · Clavio.de · Guitarworld.de · Recording.de

Musiker-Board Logo
Oben