Wie spielt ihr diese Pull-Offs?

MuMan
MuMan
Registrierter Benutzer
Zuletzt hier
09.10.06
Registriert
23.08.03
Beiträge
717
Kekse
17
Ort
Fulda [Hessen]
Hallo,

ich hab mal ne ganz einfach Frage an euch:

Wie spielt ihr dieses Pull-Off bzw. Hammer-On, wie es z.b in diesem Solo vorkommen?

Iron Maiden - Phantom of the Opera

E |--19h15----19h15-----19h15----19h15---------------------------------
B |--------17-------17--------17-------17--------------------------------
G |-----------------------------------------------------------------------
D |-----------------------------------------------------------------------
A |-----------------------------------------------------------------------
E |-----------------------------------------------------------------------

D

E |--17h14----17h14-----17h14----17h14---------------------------------
B |--------15-------15--------15-------15-------------------------------
G |-----------------------------------------------------------------------
D |-----------------------------------------------------------------------
A |-----------------------------------------------------------------------
E |-----------------------------------------------------------------------

C

E |--15h12----15h12-----15h12----15h12--------------------------------
B |--------13-------13--------13-------13-------------------------------
G |-----------------------------------------------------------------------
D |-----------------------------------------------------------------------
A |-----------------------------------------------------------------------
E |-----------------------------------------------------------------------

D

E |--17h14----17h14-----17h14----17h15---------------------------------
B |--------15-------15--------15-------15-------------------------------
G |-----------------------------------------------------------------------
D |-----------------------------------------------------------------------
A |-----------------------------------------------------------------------
E |-----------------------------------------------------------------------

Die Schwierigkeit dabei ist ja bei schneller Geschwindigkeit die B-Saite zu spielen. Wie macht ihr das? Will dies unbedingt lernen, weil diese Technik bei sehr vielen Soli verwendet wird.

Gruß MuMan
 
Eigenschaft
 
msoada
msoada
Mod Emeritus
Ex-Moderator
Zuletzt hier
21.09.15
Registriert
08.05.05
Beiträge
4.489
Kekse
5.974
Ort
Belgrad
Ich kenn GENAU die GLEICHEN Töne aus einem anderen Solo, mein Klassiker- Fast as a shark nur das bei den 15p12 danneine 14 kommt. da ich die Pull off Serie kenne kann ich dir sagen wie ich es spielen (WOW:eek::D):

Ich spiee den Hohen ton z.B. die 17 mit dem Ringfinger und die 14 dann mit dem zeigefinger. Die Jweilige Note auf der B- Seite greif ich mit dem Mittelfinger
bitte.
 
H
Hans_3
High Competence Award
HCA
Zuletzt hier
22.09.21
Registriert
09.11.03
Beiträge
16.571
Kekse
57.661
MuMan schrieb:
Die Schwierigkeit dabei ist ja bei schneller Geschwindigkeit die B-Saite zu spielen.

Das ist nicht das Problem, sondern die Lagenwechsel sind sehr tricky, wenn man das so spielt, dass zwischen den Wechseln keine Lücken entstehen sondern alles gleichmäßig hintereinander kommt.

Die Anschläge selbst löst man mit einfachem Wechselschlag: E-Saite Downstroke, H-Saite Upstroke.

Fingersatz bleibt auch immer gleich: K Z M. Ringfinger bleibt arbeitslos.
 
MuMan
MuMan
Registrierter Benutzer
Zuletzt hier
09.10.06
Registriert
23.08.03
Beiträge
717
Kekse
17
Ort
Fulda [Hessen]
Ja richtig. Die Technik sauber und lückenlos hinzukriegen ist wirklich schwer, vor allem bei der Geschwindigkeit.

Danke für eure Tipps. Werde mich mal an Hans' Technik halten und üben...
 
spa
spa
Registrierter Benutzer
Zuletzt hier
12.08.21
Registriert
13.03.05
Beiträge
6.761
Kekse
15.146
Ort
in einem Kaff
Einfacher wärs vllt. alà Mark Knopfler...einfach Plek weg und 2 Finger nehmen!:great:
 
H
Hans_3
High Competence Award
HCA
Zuletzt hier
22.09.21
Registriert
09.11.03
Beiträge
16.571
Kekse
57.661
Damit werden die Übergänge aber nicht einfacher ;) . Die kann man übrigens übungshalber auch dichter hinereinander spielen, d.h. jede Phrase nur 1 oder 2 x statt viermal. Dadurch spielt/übt man die Übergänge öfter in der selben Zeit, als wenn man alles immer komplett durchspielt.
 

Ähnliche Themen


Neue Themen

Unser weiteres Online-Angebot:
Bassic.de · Deejayforum.de · Sequencer.de · Clavio.de · Guitarworld.de · Recording.de

Musiker-Board Logo
Oben