Weiß jemand wie man diese Tabs spielt????

von alex97531, 23.05.08.

Status des Themas:
Es sind keine weiteren Antworten möglich.
  1. alex97531

    alex97531 Registrierter Benutzer

    Im Board seit:
    18.05.08
    Zuletzt hier:
    3.06.08
    Beiträge:
    14
    Zustimmungen:
    0
    Kekse:
    -32
    Erstellt: 23.05.08   #1
    Hi, an alle!
    Kann mir jemand sagen wie man diese Tabs spielt????:


    ah. full 1/2 full 1/2 full 1/4 /\/ 1/2
    E|--------------/\----|------------|\-------/------|\----|---/``````\-----/----------|-----|
    B|-------------/--\---|------------|-\-----/---8~~-|-\---|--/--8-8---\---/-----------|-----|
    G|------------7----p5-|-7-(7)~~~---7--p5--7--------7--p5-|-7-------7----5------------/\----|
    D|-7~~~~~~~~~---------|----------------------------------|-------------------7---5--/--\---|
    A|--------------------|----------------------------------|-------------------------5-----3-|
    E|--------------------|----------------------------------|---------------------------------|

    2 1/4 /\/ 1/2
    E|---------------------------------------/-|-/-------------------------------------------------------------|
    B|-------------------------------------13--|13----------------------------------------------/--------------|
    G|7s9-9s10-----------------------12h14-----|---14--12--------------------------------------/---------------|
    D|-------------------10h12-12s14-----------|----------14-13h14p13p12-13p12-10-12p10-------10---------------|
    A|5s7-7s8-8h10-10s12-----------------------|----------------------------------------12p10----12p10-12-(12)\|
    E|-----------------------------------------|---------------------------------------------------------------|

    full full
    /```````````\ /``````````\ full
    E|--/-15-15-15----\--------/---15-15----\-------|-----------------------13-----/---|
    B|-15---------15-(15)p13--15---------15---13-12-|----12s15-13-12-13-------13--15---|
    G|----------------------------------------------|--13--------------14--------------|
    D|----------------------------------------------|14------------------15------------|
    A|----------------------------------------------|----------------------------------|
    E|----------------------------------------------|----------------------------------|

    full
    |\ full full
    E|--------|-\--------/---5------|\-----------|---/```````````````\---|
    B|15~~~--15(15)p13--8-----8-5---|-\------x-x-|-8/-----------------\--|
    G|------------------------------7-(7)p5--x-x-|-7--(7)~~~~~~~~~-------|
    D|-------------------------------------------|-----------------------|
    A|-------------------------------------------|-----------------------|
    E|-------------------------------------------|-----------------------|

    Danke vielleicht kann es mir jemand über ein Video erklären????

    Danke:D:D:D:D

    M.f.G. Alex
     
  2. TheKing

    TheKing Helpful & Friendly User HFU

    Im Board seit:
    09.10.05
    Zuletzt hier:
    6.08.14
    Beiträge:
    3.415
    Zustimmungen:
    16
    Kekse:
    7.075
    Erstellt: 23.05.08   #2
    Zu welchem Lied sollen denn die Tabulator gehören?

    Grüße. Ced
     
  3. Christof Berlin

    Christof Berlin Registrierter Benutzer

    Im Board seit:
    04.01.07
    Zuletzt hier:
    4.12.16
    Beiträge:
    686
    Ort:
    Schweden
    Zustimmungen:
    419
    Kekse:
    6.302
    Erstellt: 23.05.08   #3
    ... und gibt es die Tabs auch in einer Ansicht, die man entziffern kann? Mannomannomann....
     
  4. Battery_1988

    Battery_1988 Registrierter Benutzer

    Im Board seit:
    21.12.05
    Zuletzt hier:
    12.11.15
    Beiträge:
    617
    Zustimmungen:
    5
    Kekse:
    565
    Erstellt: 23.05.08   #4
    Setz die Tabs doch mal zwischen diese vB Codes
    Ungefähr so;):
    Code:
    ah. full 1/2 full 1/2 full 1/4 /\/ 1/2
    E|--------------/\----|------------|\-------/------|\----|---/``````\-----/----------|-----|
    B|-------------/--\---|------------|-\-----/---8~~-|-\---|--/--8-8---\---/-----------|-----|
    G|------------7----p5-|-7-(7)~~~---7--p5--7--------7--p5-|-7-------7----5------------/\----|
    D|-7~~~~~~~~~---------|----------------------------------|-------------------7---5--/--\---|
    A|--------------------|----------------------------------|-------------------------5-----3-|
    E|--------------------|----------------------------------|---------------------------------|
    
    2 1/4 /\/ 1/2
    E|---------------------------------------/-|-/-------------------------------------------------------------|
    B|-------------------------------------13--|13----------------------------------------------/--------------|
    G|7s9-9s10-----------------------12h14-----|---14--12--------------------------------------/---------------|
    D|-------------------10h12-12s14-----------|----------14-13h14p13p12-13p12-10-12p10-------10---------------|
    A|5s7-7s8-8h10-10s12-----------------------|----------------------------------------12p10----12p10-12-(12)\|
    E|-----------------------------------------|---------------------------------------------------------------|
    
    full full
    /```````````\ /``````````\ full
    E|--/-15-15-15----\--------/---15-15----\-------|-----------------------13-----/---|
    B|-15---------15-(15)p13--15---------15---13-12-|----12s15-13-12-13-------13--15---|
    G|----------------------------------------------|--13--------------14--------------|
    D|----------------------------------------------|14------------------15------------|
    A|----------------------------------------------|----------------------------------|
    E|----------------------------------------------|----------------------------------|
    
    full
    |\ full full
    E|--------|-\--------/---5------|\-----------|---/```````````````\---|
    B|15~~~--15(15)p13--8-----8-5---|-\------x-x-|-8/-----------------\--|
    G|------------------------------7-(7)p5--x-x-|-7--(7)~~~~~~~~~-------|
    D|-------------------------------------------|-----------------------|
    A|-------------------------------------------|-----------------------|
    E|-------------------------------------------|-----------------------|
    Jetzt stellt sich nur noch die Frage welche Stelle du genau meinst:)
     
  5. alex97531

    alex97531 Threadersteller Registrierter Benutzer

    Im Board seit:
    18.05.08
    Zuletzt hier:
    3.06.08
    Beiträge:
    14
    Zustimmungen:
    0
    Kekse:
    -32
    Erstellt: 23.05.08   #5
    Weiß selbst nicht genau aber glaube von don't cry hab einfach nur E-gitarrensolo eingegeben!!!
     
  6. TheKing

    TheKing Helpful & Friendly User HFU

    Im Board seit:
    09.10.05
    Zuletzt hier:
    6.08.14
    Beiträge:
    3.415
    Zustimmungen:
    16
    Kekse:
    7.075
    Erstellt: 23.05.08   #6
    Wenn du das selber nicht weißt, was willst du dann damit machen?
     
  7. alex97531

    alex97531 Threadersteller Registrierter Benutzer

    Im Board seit:
    18.05.08
    Zuletzt hier:
    3.06.08
    Beiträge:
    14
    Zustimmungen:
    0
    Kekse:
    -32
    Erstellt: 23.05.08   #7
    Hm check i net ganz was ist a cv Code????
     
  8. alex97531

    alex97531 Threadersteller Registrierter Benutzer

    Im Board seit:
    18.05.08
    Zuletzt hier:
    3.06.08
    Beiträge:
    14
    Zustimmungen:
    0
    Kekse:
    -32
    Erstellt: 23.05.08   #8
    I will solieren lernen und da hob i anfoch E-gitarren solo eigeben
     
  9. Christof Berlin

    Christof Berlin Registrierter Benutzer

    Im Board seit:
    04.01.07
    Zuletzt hier:
    4.12.16
    Beiträge:
    686
    Ort:
    Schweden
    Zustimmungen:
    419
    Kekse:
    6.302
    Erstellt: 23.05.08   #9
    Ja, geh Burschi, und? Hat des gfunzt? Supa, oda? Un jetza wuist des lerna? :D
     
  10. TheKing

    TheKing Helpful & Friendly User HFU

    Im Board seit:
    09.10.05
    Zuletzt hier:
    6.08.14
    Beiträge:
    3.415
    Zustimmungen:
    16
    Kekse:
    7.075
    Erstellt: 23.05.08   #10
    Ja, das wirst du so nicht lernen. Setz dich erstmal mit den Basics (Skalen, Improvisation, etc.) auseinander. Nutze dafür bitte die Suchfunktion, und mach nicht einen neuen Thread dafür auf ;)

    Grüße. Ced
     
  11. alex97531

    alex97531 Threadersteller Registrierter Benutzer

    Im Board seit:
    18.05.08
    Zuletzt hier:
    3.06.08
    Beiträge:
    14
    Zustimmungen:
    0
    Kekse:
    -32
    Erstellt: 23.05.08   #11
    Eigentlich versteh ich garnichts von der Stelle:):)
     
  12. TheKing

    TheKing Helpful & Friendly User HFU

    Im Board seit:
    09.10.05
    Zuletzt hier:
    6.08.14
    Beiträge:
    3.415
    Zustimmungen:
    16
    Kekse:
    7.075
  13. Thundersnook

    Thundersnook Registrierter Benutzer

    Im Board seit:
    18.06.07
    Zuletzt hier:
    4.12.16
    Beiträge:
    3.351
    Ort:
    Leipzig!
    Zustimmungen:
    393
    Kekse:
    34.604
    Erstellt: 23.05.08   #13
  14. basslayer

    basslayer Registrierter Benutzer

    Im Board seit:
    14.07.07
    Zuletzt hier:
    14.02.13
    Beiträge:
    880
    Ort:
    Niederbayern
    Zustimmungen:
    143
    Kekse:
    6.362
    Erstellt: 23.05.08   #14
    Meine Fresse, mir fällt nichts mehr ein......also ein bissl Nachdenken wäre angebracht.
    Das ist das Internet, wir sind nicht in deinem Kopf und wissen was du willst.

    1. Stelle klare, gut leserliche Fragen !
    2. Sei doch ein bisschen mittteilsamer und erzähl uns, worauf du hinaus willst.
    3. Wenn sowas nicht ist, kannst du auch wohl kaum mit einer netten, hilfreichen Antwort rechnen.


    Ich spare mir sonstiges OT, jegliche Aufregereien, aber ich würd sagen, solche Leute sollten nur noch auf SuFU und Boardregeln verwiesen werden.

    Genervter Gruß, Max
     
  15. LennyNero

    LennyNero HCA Gitarre: Racks & MIDI Ex-Moderator HCA

    Im Board seit:
    02.12.03
    Zuletzt hier:
    3.12.16
    Beiträge:
    17.525
    Ort:
    Wetzlar
    Zustimmungen:
    288
    Kekse:
    35.616
    Erstellt: 23.05.08   #15
Die Seite wird geladen...

Status des Themas:
Es sind keine weiteren Antworten möglich.
mapping