Wie zupfe ich As Tears Go By von den Rolling Stones

von audiojones, 14.03.07.

Sponsored by
pedaltrain
  1. audiojones

    audiojones Registrierter Benutzer

    Im Board seit:
    08.03.07
    Zuletzt hier:
    4.08.15
    Beiträge:
    995
    Ort:
    Innsbruck
    Kekse:
    371
    Erstellt: 14.03.07   #1
    Wie zupfe ich denn das Lied As Tears Go By von den Rolling Stones?
    Ich übe gerade....die Akkorde klappen, aber wie zupfe ich das am besten?
     
  2. LennyNero

    LennyNero HCA Gitarre: Racks & MIDI Ex-Moderator HCA

    Im Board seit:
    02.12.03
    Zuletzt hier:
    7.11.18
    Beiträge:
    17.537
    Ort:
    Wetzlar
    Kekse:
    35.782
    Erstellt: 14.03.07   #2
    Code:
     G                       A                C
    
    ||--------3-------3------|-----------0-----|---------0-----0---|
    
    ||-------------0-----0---|-------2-----2---|-------1---------1-|
    
    ||-----------0----------0|-----2---------2-|-0---0-------------|
    
    ||-----------------------|---2-------------|-----------0-2-----|
    
    ||-----------------------|-0---------------|---3---------------|
    
    ||-0-3-------------------|-----------------|-------------------|
    
    
    ---------y
     D        [Dsus2] D
    
    |--------2---0----2-----||
    
    |------3------------3---||
    
    |----2----------------2-||
    
    |-0----------0---0------||
    
    |-----------------------||
    
    |-----------------------||
    
    
    after second repeat switch to the following
    
    
        smiling faces  I can se-----e      but not for      me
     C                 D      [Dsus4]D     G               Em       [Em7]
    
    |------------0----|-------2--0---2----|------3---------|----0---------|
    
    |---------1-----1-|-----3----------3--|----0---0-------|---0----------|
    
    |------0----------|---2--------------2|--0-------0---0-|--0-----0---0-|
    
    |-----------------|-0-----------------|------------0---|------2---0---|
    
    |--3--------------|-------------------|----------------|-2------------|
    
    |-----------------|-------------------|-3--------------|--------------|
    
    
      I  sit   and    watch as tears go    by
     C                                     D      [Dsus4]D[Dsus4]
    
    |---------0-----------------0------0-|-------2---0---2----0---|
    
    |-------1---1-------------1---1------|-----3----------------3-|
    
    |-----0-------0---0-----0-------0----|---2--------------------|
    
    |--------------2------------------2--|-0----------------------|
    
    |-3-----------------3----------------|------------------------|
    
    |------------------------------------|------------------------|
    
     
  3. audiojones

    audiojones Threadersteller Registrierter Benutzer

    Im Board seit:
    08.03.07
    Zuletzt hier:
    4.08.15
    Beiträge:
    995
    Ort:
    Innsbruck
    Kekse:
    371
    Erstellt: 14.03.07   #3
    Ich meinte jetzt eigentlich wenn ich nur die akkorde habe, also C, Dm, F, G usw..
    w
    welche seiten ich anschlagen muss!
     
  4. mYa

    mYa Registrierter Benutzer

    Im Board seit:
    21.02.07
    Zuletzt hier:
    1.12.16
    Beiträge:
    910
    Ort:
    Nordwestschweiz
    Kekse:
    3.444
    Erstellt: 14.03.07   #4
    zugehöriger Bass und die höchsten drei Saiten...so das es gut klingt...wenn dus net nach Tab spielen willst. ;)
     
  5. LennyNero

    LennyNero HCA Gitarre: Racks & MIDI Ex-Moderator HCA

    Im Board seit:
    02.12.03
    Zuletzt hier:
    7.11.18
    Beiträge:
    17.537
    Ort:
    Wetzlar
    Kekse:
    35.782
    Erstellt: 14.03.07   #5
    Das Zupfmuster sind die gegriffenen Akkorde.

    Wo ist da das Problem? Akkord greifen, und die Saiten entsprechende der Reihenfolge wie in der Tabulatur anschlagen. Die kleinen "Schlenker" zwischendurch musst, du nciht spielen, sie geben dem ganzen nur etwas Wuerze.
     
  6. Godin

    Godin Registrierter Benutzer

    Im Board seit:
    30.10.05
    Zuletzt hier:
    16.10.20
    Beiträge:
    30
    Ort:
    Viersen
    Kekse:
    10
    Erstellt: 14.03.07   #6
    Hallo Lenny da hat sich wohl der Fehlerteufel in deinen Tabs eingeschlichen.
    Im Intro schreibst du A-Dur, zupft aber nicht im zweiten sondern im Dritten Bund.
    Gruß Godin
     
  7. LennyNero

    LennyNero HCA Gitarre: Racks & MIDI Ex-Moderator HCA

    Im Board seit:
    02.12.03
    Zuletzt hier:
    7.11.18
    Beiträge:
    17.537
    Ort:
    Wetzlar
    Kekse:
    35.782
    Erstellt: 14.03.07   #7

    Thanx
     
  8. audiojones

    audiojones Threadersteller Registrierter Benutzer

    Im Board seit:
    08.03.07
    Zuletzt hier:
    4.08.15
    Beiträge:
    995
    Ort:
    Innsbruck
    Kekse:
    371
    Erstellt: 25.10.07   #8
    lol das hat mich auch schon immer gewundert beim spielen, ist das jetzt falsch oder richtig?
     
Die Seite wird geladen...

mapping