1001 nacht - klaus lage

von nicmics, 12.06.06.

  1. nicmics

    nicmics Registrierter Benutzer

    Im Board seit:
    12.02.04
    Zuletzt hier:
    22.10.12
    Beiträge:
    24
    Zustimmungen:
    0
    Kekse:
    10
    Erstellt: 12.06.06   #1
    Hi Folks,

    hat jemand von Euch den Unisono (git/Bass) Teil in der Strophe schon rausgehört? Dann könnt ich mir das sparen...

    wäre echt super wenn das klappt!
    Danke schon mal im Voraus...

    Greetz
    Nicmics

    :great:
     
  2. deejot

    deejot Registrierter Benutzer

    Im Board seit:
    19.08.03
    Zuletzt hier:
    5.12.16
    Beiträge:
    332
    Zustimmungen:
    2
    Kekse:
    15
    Erstellt: 18.10.06   #2
    *dranhäng*

    ;)
     
  3. deejot

    deejot Registrierter Benutzer

    Im Board seit:
    19.08.03
    Zuletzt hier:
    5.12.16
    Beiträge:
    332
    Zustimmungen:
    2
    Kekse:
    15
    Erstellt: 21.10.06   #3
    So, fürs Archiv :) Sollte etwa hinkommen. Korrekturen wenn nötig willkommen.

    Code:
    G|-----------|----------|-----------|------------|
    D|*----------|----------|-----------|----3---5--*|
    A|*---1-5-3--|-------1--|--6-5---3--|--5---5----*|
    E|--3--------|-1-2-3----|------3----|------------|
    
    
    G|-----------|----------|------------|-----------|
    D|-----------|----------|----8-------|--3-----3--|
    A|--1---3-1--|-3-----1--|--6---6-5---|----5-3----|
    E|----1------|---1-3----|------------|-----------|
    
    G|-----------|----------|
    D|-----------|----------|
    A|--1---3-1--|-3-----1--|
    E|----1------|---1-3----|
     
  4. lodi

    lodi Registrierter Benutzer

    Im Board seit:
    02.01.04
    Zuletzt hier:
    5.02.16
    Beiträge:
    296
    Ort:
    Minden
    Zustimmungen:
    1
    Kekse:
    1.337
    Erstellt: 28.09.07   #4
    Ich habs jetzt so rausgehört...zumindest die Strophe...und will es hier aufbewahren, damit ichs wiederfinde...sind nur minimale Änderungen...nicht, dass es richtig sein müsste...

    Code:
    G|-----------|----------|-----------|------------|
    D|*----------|----------|-----------|----3---5--*|
    A|*---1-5----|-----0-1--|--6-5---3--|--5---5----*|
    E|--3------3-|-1-3------|------3----|------------|
    
    
    G|-----------|----------|------------|-----------|
    D|-----------|----------|----8-------|--3-----3--|
    A|--1-----1--|-3-----1--|--6---6-5---|----5-3----|
    E|----1-3----|---1-3----|------------|-----------|
    
    G|-----------|----------|
    D|-----------|----------|
    A|--1---3-1--|-3-----1--|
    E|----1------|---1-3----|
    Ich spiele es mit Leersaiten...also:

    Code:
    G|-----------|----------|-----------|---------0--|
    D|*-----0----|----------|--1-0------|--0-3-0----*|
    A|*---1------|-----0-1--|--------3--|-----------*|
    E|--3------3-|-1-3------|------3----|------------|
    
    
    G|-----------|----------|----3-------|-----------|
    D|-----------|----------|--1---1--0--|--3-0---3--|
    A|--1-----1--|-3-----1--|------------|------3----|
    E|----1-3----|---1-3----|------------|-----------|
    
    G|-----------|----------|
    D|-----------|----------|
    A|--1---3-1--|-3-----1--|
    E|----1------|---1-3----|
    
     
Die Seite wird geladen...

mapping