A-Guitar solo

  • Ersteller nirvanafreak
  • Erstellt am
nirvanafreak
nirvanafreak
Registrierter Benutzer
Zuletzt hier
25.08.08
Registriert
22.07.04
Beiträge
112
Kekse
8
Ort
Graz
hi kennt jemand ein solo für nen 4/4 Takt das auf der Akustishen Gitarre zu spielen ist

schwierigkeitsgrad: mittel


danke
 
Eigenschaft
 
D
downward spiral
Registrierter Benutzer
Zuletzt hier
23.05.20
Registriert
10.04.05
Beiträge
374
Kekse
277
Ort
Dresden
Du bist doch NIRVANA Freak: Try Lake of Fire. Würd mal sagen Schwierigkeit ist Mittel und es ist geil zu spielen. Die meisten Tabs im Netz sind fehlerhaft aber ich hab mal die gröbsten korrigiert- den Rest must du selber rausfinden:

Halbton runter gestimmt und:

e------3-----)--3--------------------------------------------------------)---
b--2/3---3--6------6----------------------------------------------------3----
g---------------------5--3----------------------------------------------3----
d--------------------------5-4-3---------------------------------3--3^5----5--
a---------------------------------5--4--3----------------3--4--5---------------
e------------------------------------------6--3--3---3--6-----------------------

e----------------------------------------------------------------------------
b---------6---6------------------------------------------------------8-----2/3-
g--3--5/7---7----7\5--3----------------------------------------5/7----7\-----
d------------------------5--5--3-----3-----3-----------------------------------
a---------------------------------5-5---5-5---5--3-----------------------------
e-----------------------------------------------------6--3--3--3-----------------

e--3-------------------------------------------------------------------------
b-----3--6----3-------------3----------3-----3-------------------------------
g----------5----3--5--------3----------3-----3-------------------------------
d----------------------3--5----5--3^5----5------5--3-------------------------
a-----------------------------------------------------5--4--3----------------
e---------------------------------------------------------------6--3---3--6--

e----------------------------------------------------------------------------
b----------------------------------------------------------------------------
g----------------------------------------------------------------------------
d-----------3--3^5-----------------------------------------------------------
a--3--4--5----------3--------------------------------------------------------
e----------------------6--3--------------------------------------------------
good luck:great:

mfG René
 

Ähnliche Themen


Unser weiteres Online-Angebot:
Bassic.de · Deejayforum.de · Sequencer.de · Clavio.de · Guitarworld.de · Recording.de

Musiker-Board Logo
Oben