American Idiot Solo

von jake jackson, 05.01.06.

  1. jake jackson

    jake jackson Registrierter Benutzer

    Im Board seit:
    27.11.05
    Zuletzt hier:
    1.04.07
    Beiträge:
    82
    Zustimmungen:
    0
    Kekse:
    10
    Erstellt: 05.01.06   #1
    Ich hab mal ne frage :
    geht der teil vom american idiot solo so :
    ----------------------8------
    ------9------11---------------11-9--
    -8-8---8-8-----8-8---8-8----------
    ----------------------------
    ------------------------------
    -----------------------------

    oder so :

    ----------------------8------
    ------9------11--------11-9--
    -8-8---8-8-----8-8------------
    ----------------------------
    ------------------------------
    -----------------------------

    bräuchte es für meinen gitarrenuntericht
    normalerweis würd ichs raushören aber meine boxen sind kaputt :(
     
  2. jake jackson

    jake jackson Threadersteller Registrierter Benutzer

    Im Board seit:
    27.11.05
    Zuletzt hier:
    1.04.07
    Beiträge:
    82
    Zustimmungen:
    0
    Kekse:
    10
    Erstellt: 05.01.06   #2
    kommt schon lasst mich ned im stich :(
     
  3. Penetranzbestie

    Penetranzbestie Registrierter Benutzer

    Im Board seit:
    11.02.05
    Zuletzt hier:
    30.01.10
    Beiträge:
    93
    Zustimmungen:
    0
    Kekse:
    32
    Erstellt: 05.01.06   #3
    würds wie erstes spielen aber nach der 11 nochmal 8 auf der g saite spielen
     
  4. jake jackson

    jake jackson Threadersteller Registrierter Benutzer

    Im Board seit:
    27.11.05
    Zuletzt hier:
    1.04.07
    Beiträge:
    82
    Zustimmungen:
    0
    Kekse:
    10
    Erstellt: 05.01.06   #4
    jetz hab ich so ein verlangsamungs programm für gitarre getestet und deins stimmt danke :D
     
Die Seite wird geladen...

mapping