Tabkorrektur erforderlich!!!

cortx
cortx
Registrierter Benutzer
Zuletzt hier
25.01.08
Registriert
02.02.04
Beiträge
92
Kekse
3
ja also ich habe mir Tabs von der Band "Silbermond" gezogen zum Song "Du & Ich".
Studieren es gerad bei unserer Band ein und ich bleib bei meinen Gitrarrentabs stecken.

und zwar hier die Tab`s:

Intro: (1x Clean)


Intro: (1x Clean)


e----------------------------------
h----------------------------------
G-----7-7--------------------------
D-----7-7---7-7-7--9-9-9---5-5-5---
A-----5-5---7-7-7--9-9-9---5-5-5---
E-----------5-5-5--7-7-7---3-3-3---


e-----------------------------------
h-----------------------------------
G-----7-7-7-------------------------
D-----7-7-7--7-7-7--9-9-9---4-4-5-5-
A-----5-5-5--7-7-7--9-9-9---4-4-5-5-
E------------5-5-5--7-7-7---2-2-3-3-



Chorus: (1x Heavy Distortion)


e----------------------------------
h----------------------------------
G-----7-7--------------------------
D-----7-7---7-7-7--9-9-9---5-5-5---
A-----5-5---7-7-7--9-9-9---5-5-5---
E-----------5-5-5--7-7-7---3-3-3---


e-----------------------------------
h-----------------------------------
G-----7-7-7-------------------------
D-----7-7-7--7-7-7--9-9-9---4-4-5-5-
A-----5-5-5--7-7-7--9-9-9---4-4-5-5-
E------------5-5-5--7-7-7---2-2-3-3-


Verse: (with distortion)


e----------------------------------
h----------------------------------
G-----7-7--------------------------
D-----7-7---7-7-7--9-9-9---5-5-5---
A-----5-5---7-7-7--9-9-9---5-5-5---
E-----------5-5-5--7-7-7---3-3-3---


e-----------------------------------
h-----------------------------------
G-----7-7-7-------------------------
D-----7-7-7--7-7-7--9-9-9---4-4-5-5-
A-----5-5-5--7-7-7--9-9-9---4-4-5-5-
E------------5-5-5--7-7-7---2-2-3-3-



e----------------------------------
h----------------------------------
G-----7-7--------------------------
D-----7-7---7-7-7--9-9-9---5-5-5---
A-----5-5---7-7-7--9-9-9---5-5-5---
E-----------5-5-5--7-7-7---3-3-3---


e-----------------------------------
h-----------------------------------
G-----7-7-7-------------------------
D-----7-7-7--7-7-7--9-9-9---4-4-5-5-
A-----5-5-5--7-7-7--9-9-9---4-4-5-5-
E------------5-5-5--7-7-7---2-2-3-3-



e-------------------------------------------------------
h-------------------------------------------------------
G-------------------------------------------------------
D----9-9--9-9-9---8-8--8-8-8---5-5--5-5-5---8-8--x-x-9--
A----9-9--9-9-9---8-8--8-8-8---5-5--5-5-5---8-8--x-x-9--
E----7-7--7-7-7---6-6--6-6-6---3-3--3-3-3---6-6--x-x-7--




e---------------------------------------------------------------------------------------------------------------
h---------------------------------------------------------------------------------------------------------------
G-----7-7-7-7-7--6-6-6-6-6-------------------------------------------------------7-7-7-7-7-7-7-7-7-7--
D-----7-7-7-7-7--6-6-6-6-6---7-7-7-7-7-7-7-7-7-7---9-9-9-9-9-8-8-8-8-8-7-7-7-7-7-7-7-7-7-7--
A-----5-5-5-5-5--4-4-4-4-4---7-7-7-7-7-7-7-7-7-7---9-9-9-9-9-8-8-8-8-8-5-5-5-5-5-5-5-5-5-5--
E---------------------------------5-5-5-5-5-5-5-5-5-5---7-7-7-7-7-6-6-6-6-6------------------------


e---------------------------------------------------------------------------------------------------------------
h---------------------------------------------------------------------------------------------------------------
G-----7-7-7-7-7--6-6-6-6-6-------------------------------------------------------7-7-7-7-7-7-7-7-7-7--
D-----7-7-7-7-7--6-6-6-6-6---7-7-7-7-7-7-7-7-7-7---9-9-9-9-9-8-8-8-8-8-7-7-7-7-7-7-7-7-7-7--
A-----5-5-5-5-5--4-4-4-4-4---7-7-7-7-7-7-7-7-7-7---9-9-9-9-9-8-8-8-8-8-5-5-5-5-5-5-5-5-5-5--
E---------------------------------5-5-5-5-5-5-5-5-5-5---7-7-7-7-7-6-6-6-6-6------------------------


Continue with Intro, Chorus and Verse


Und es fehlt aufjeden Fall noch etwas. Nur da ich halt erst seid Januar Gitarre spiele, erkenn ich noch nicht ganz wo bzw wie ich den fehlenden part spielen muss. Deshalb
wäre es super wenn mir jmd. den fehlenden Part per Tabs aufschreiben würde und mir das vielleicht korrekt aufschreiben könnte.

Ich hoffe es kann mir jmd. helfen :redface:

lg
 
Eigenschaft
 
cortx
  • Gelöscht von LennyNero
  • Grund: Dies ist ein Forum, und kein Chat. Etwas mehr Geduld bitte.
sweet nuthin'
sweet nuthin'
Registrierter Benutzer
Zuletzt hier
21.04.15
Registriert
07.07.05
Beiträge
762
Kekse
1.075
Ort
zuhause
Ich kenne den Song zwar nicht, mir wird aber auch nicht ersichtlich wo da etwas fehlen soll? :confused:
 
M
M?tze
Registrierter Benutzer
Zuletzt hier
02.05.06
Registriert
14.12.04
Beiträge
212
Kekse
28
Bob Dylan schrieb:
Ich kenne den Song zwar nicht, mir wird aber auch nicht ersichtlich wo da etwas fehlen soll? :confused:


Vermutlich weisst du jetzt nicht mal, warum dem so ist.

Oh Gott!
 
cortx
cortx
Registrierter Benutzer
Zuletzt hier
25.01.08
Registriert
02.02.04
Beiträge
92
Kekse
3
lol :p Mütze sagt es.
Man muss schon den Song kennen..... argh... keiner irgendne ahnung?
 
cortx
cortx
Registrierter Benutzer
Zuletzt hier
25.01.08
Registriert
02.02.04
Beiträge
92
Kekse
3
ok hab mir die 2 restlichen parts herausgepuzzlet ;)
 

Ähnliche Themen


Neue Themen

Unser weiteres Online-Angebot:
Bassic.de · Deejayforum.de · Sequencer.de · Clavio.de · Guitarworld.de · Recording.de

Musiker-Board Logo
Oben