blur song2:welche tabs sind nun korrekt ?

  • Ersteller Deep Purple
  • Erstellt am
D
Deep Purple
Registrierter Benutzer
Zuletzt hier
19.06.07
Registriert
14.01.04
Beiträge
107
Kekse
0
also ich bin im netz auf die verschiedendsten versionen gestoßen. bräuchte eine korrekte für gitarre und bass wenn möglich auch son hinweis für drummer

blur - song 2

tabbed by fennermatt

intro

D-10-10-8-8-8-11-11-13-15-15-15-15
A-8--8--6-6-6-9--9--11-13-13-13-13

chorus

D-------------2-2-4-6-6-6-6
A-4-4-4-2-2-2-0-0-2-4-4-4-4
E-2-2-2-0-0-0--------------

Drum tab

B = Bass
S = Snare

B,B,S. B,B,S. B,B,S,B,B,B.

100% correct


This file is the author's own work and represents their interpretation of the #
# song. You may only use this file for private study, scholarship, or research. #
#-------------------------------------------------------------------------------#

PROPS GO TO: adam pollack

BLUR
SONG 2
2:00

DROP D TUNING

ADAM POLLACK

THE SONG STARTS OUT WITH TWO MEASURES OF JUST DRUMS
THEN IT GOES INTO THIS RIFF FOR TWO TIMES

INTRO 2X

E-----------------------------------------------------------0
B-----------------------------------------------------------0
G--10--10--X--8--8--8--X---13--13--15--17----17--17---------0
D--10--10--X--8--8--8--X---13--13--15--17----17--17---------0
A---8---8--X--6--6--6--X---11--11--13--15----15--15---------0
D-----------------------------------------------------------0

THIS PROBABLY ISN'T THE RIGHT RHYTHM SO LISTEN TO THE SONG

CHORUS 4X (same rhythm as verse just with these chords)

E-----------------------o
B-----------------------o
G-----------------------o AT THE END OF EACH RIFF HE YELLS "WOO HOO!"
D--3--1--6--8--10-------o
A--3--1--6--8--10-------o
D--3--1--6--8--10-------o

THE SECOND GUITAR DOES THIS DURING THE CHORUS:

E--1--1--1--1--1--1--1--1--1--1--1--------O
B-----------------------------------------O
G-----------------------------------------O
D-----------------------------------------O
A-----------------------------------------O
D-----------------------------------------O

VERSE 1 4X (verse is the same as the intro)

CHORUS 3X

BRIDGE 1X

E---------------------------------------O
B---------------------------------------O YOU STRUM THE CHORDS FASTER THAN THAT
G---------------------------------------O BUT IT RESEMBLES THAT YOU STRUM THE 3RD
D--3-3-3---6-6-6---10-10-10-10-10-10----O AND 6TH FRET CHORDS FOR HALF THE MEASURE AND
A--3-3-3---6-6-6---10-10-10-10-10-10----O THE 10TH FRET CHORD FOR THE OTHER HALF
E--3-3-3---6-6-6---10-10-10-10-10-10----O

CHORUS 2X (with a heavy bass line)

VERSE 2 4X

CHORUS 3X

BRIDGE 1X

CHORUS 4X

LYRICS:

VERSE 1:

I got my head checked
By a jumbo jet
It wasn't easy
But nothin is, no

CHORUS:

When i feel heavy metal
And i'm pins and i'm needles
Well I lie and i'm easy

BRIDGE:

All of the time but i'm never sure when I need you, pleased to meet you

VERSE 2:

I got my head done
When I was young
It's not my problem
It's not my problem

CHORUS

BRIDGE

ENDING CHORUS:

Yeah Yeah
Yeah Yeah
Yeah Yeah
Oh Yeah

THERE U ARE MY BLUR LOVERS
THE COMPLETE SONG 2 (guitars and lyrics)
email if u find any errors or questions at adamp328@hotmail.com
PEACE






Very easy song to play! It's all just power chords in
standard tuning EBGDAE

INTRO: (starts with drums then this comes in...)
e------------------------------------------
B------------------------------------------
G--9-9--7-7-7--12-12-12--14--16-16-16-16---
D--9-9--7-7-7--12-12-12--14--16-16-16-16--- x2
A--7-7--5-5-5--10-10-10--12--14-14-14-14---
E------------------------------------------

POST INTRO: (With distorsion)
All the drums, Bass and 2nd guitar play together
here... ____
e------------------------------------------ |
B------------------------------------------ |
G--9-9--7-7-7--12-12-12--14--16-16-16-16--- |
D--9-9--7-7-7--12-12-12--14--16-16-16-16--- x4 |
A--7-7--5-5-5--10-10-10--12--14-14-14-14--- |
E------------------------------------------ |
|
Bass: |
G------------------------------------------ |
D------------------------------------------ |
A--7-7--5-5-5--10-10-10--12--14-14-14-14--- x4 |
E------------------------------------------ ____|

VERSE:
Same as "INTRO" with only drums and lead guitar...
e------------------------------------------
B------------------------------------------
G--9-9--7-7-7--12-12-12--14--16-16-16-16---
D--9-9--7-7-7--12-12-12--14--16-16-16-16--- x4
A--7-7--5-5-5--10-10-10--12--14-14-14-14---
E------------------------------------------

CHORUS: (with distorsion)
same as "Post Intro"... ____
e------------------------------------------ |
B------------------------------------------ |
G--9-9--7-7-7--12-12-12--14--16-16-16-16--- |
D--9-9--7-7-7--12-12-12--14--16-16-16-16--- x3 |
A--7-7--5-5-5--10-10-10--12--14-14-14-14--- |
E------------------------------------------ |
|
Bass: (Played louder over top of guitar...) |
G------------------------------------------ |
D------------------------------------------ |
A--7-7--5-5-5--10-10-10--12--14-14-14-14--- x3 |
E------------------------------------------ |
____|___
|
INTERLUDE:
After 3 times through riff in chorus, guitar and bass
plays this together... ____ ___|
e------------------------------------------ |
B------------------------------------------ |
G--7-----12-----14------------------------- |
D--7-----12-----14------------------------- |
A--5-----10-----12------------------------- |
E------------------------------------------ |
|x8 |x8 |x16 |
|
G------------------------------------------ |
D------------------------------------------ |
A--5-----10-----12------------------------- |
E------------------------------------------ ____|
|x8 |x8 |x16

After interlude the bass plays this with guitar from
"CHORUS" in background...
BASS INTERLUDE: (Played louder over top of guitar...)
G------------------------------------------
D----------3--5--6--7----------------------
A--5p3-5p3---------------------------------
E------------------------------------------

The Rest of the song continues like this:

VERSE
CHORUS
BASS INTERLUDE x4

And thats the hit of the whole fruit! If anyone has
any alterations on the BASS INTERLUDE at the end as I
think it bends or something, let me know!

Thanks all,
Liam Betinson
 
Eigenschaft
 
AlBundy
AlBundy
Registrierter Benutzer
Zuletzt hier
02.06.08
Registriert
31.10.04
Beiträge
790
Kekse
123
Ort
Stuttgart City
*thread ausgrab*
ich hab das gleiche problem
habe mich bisher an die tabs gehalten
http://www.guitarnotes.com/tabs/gtframe.cgi?http://getsome.org/guitar/olga/main/b/blur/song_2.tab
der song hört sich recht einfach an gut für band usw aber irgendwie glaub ich das die tabs nich stimmen


Code:
Clean Tone
    F    F          D#  D#  D#        G#  G#  A#  C    C  C
e:--------------------------------------------------------------------|
B:--10---10---X-X---8---8---8---X-X---13--13--15--17---17-17----------|
G:--10---10---X-X---8---8---8---X-X---13--13--15--17---17-17----------|
D:--10---10---X-X---8---8---8---X-X---13--13--15--17---17-17----------|2x
A:--8----8----X-X---6---6---6---X-X---11--11--13--17---15-15----------|
E:--------------------------------------------------------------------|

hier z.B die X zwischen den akkorden hör ich überhaupt nicht im lied (wobei ich nicht das bste gehör habe)
 
Thorn
Thorn
Registrierter Benutzer
Zuletzt hier
11.04.18
Registriert
03.04.04
Beiträge
1.137
Kekse
94
Also ich benutz diese hier KLICK

und unser Drummer glaub auch irgendwelche von der Seite (denk mal die ersten mit 5 Sternen die da stehen:D)
 
Dixiklo
Dixiklo
Registrierter Benutzer
Zuletzt hier
14.07.09
Registriert
29.01.05
Beiträge
731
Kekse
214
Ort
Lingen
ich benutz das zweite gepostete, das was Al genommn hat. klingt gut und richtig, von daher... :)
 
S
Skullmurray
Registrierter Benutzer
Zuletzt hier
28.02.20
Registriert
06.05.04
Beiträge
125
Kekse
23
also clean spiel ich das so:
Code:
    F5         D#5            G#5   A#5 C5     C5           
---------------------------|-------------------------------|
---------------------------|-------------------14--14--14--|
---------------------------|--9--9--11--13-----13--13--13--|
----11--11---x-9--9--9---x-|--7--7--9---11-----11--11--11--|
----9---9----x-7--7--7---x-|-------------------------------|
---------------------------|-------------------------------|

distortion so:
Code:
  F5          D#             G#5   A#5     C5          F5          D#           
--------------------------|-------------------------|--------------------------|
--------------------------|-------------------------|--------------------------|
--------------------------|--2--2--4--6----6--6--6--|--------------------------|
--4--4--4--4--2--2--2--2--|--2--2--4--6----6--6--6--|--4--4--4--4--2--2--2--2--|
--4--4--4--4--2--2--2--2--|--0--0--2--4----4--4--4--|--4--4--4--4--2--2--2--2--|
--2--2--2--2--0--0--0--0--|-------------------------|--2--2--2--2--0--0--0--0--|


und dann noch der andere part:
Code:
  F5                         G#5                      
--------------------------|--------------------------|
--------------------------|--------------------------|
--------------------------|--------------------------|
--4--4--4--4--4--4--4--4--|--7--7--7--7--7--7--7--7--|
--4--4--4--4--4--4--4--4--|--7--7--7--7--7--7--7--7--|
--2--2--2--2--2--2--2--2--|--5--5--5--5--5--5--5--5--|


  C#5                                                 
--------------------------|--------------------------|
--------------------------|--------------------------|
--7--7--7--7--7--7--7--7--|--7--7--7--7--7--7--7--7--|
--7--7--7--7--7--7--7--7--|--7--7--7--7--7--7--7--7--|
--5--5--5--5--5--5--5--5--|--5--5--5--5--5--5--5--5--|
--------------------------|--------------------------|
 

Anhänge

  • Blur - Song 2 (3).gp3
    44,7 KB · Aufrufe: 145
Dixiklo
Dixiklo
Registrierter Benutzer
Zuletzt hier
14.07.09
Registriert
29.01.05
Beiträge
731
Kekse
214
Ort
Lingen
Skullmurray schrieb:
also clean spiel ich das so:
Code:
    F5         D#5            G#5   A#5 C5     C5           
---------------------------|-------------------------------|
---------------------------|-------------------14--14--14--|
---------------------------|--9--9--11--13-----13--13--13--|
----11--11---x-9--9--9---x-|--7--7--9---11-----11--11--11--|
----9---9----x-7--7--7---x-|-------------------------------|
---------------------------|-------------------------------|

distortion so:
Code:
  F5          D#             G#5   A#5     C5          F5          D#           
--------------------------|-------------------------|--------------------------|
--------------------------|-------------------------|--------------------------|
--------------------------|--2--2--4--6----6--6--6--|--------------------------|
--4--4--4--4--2--2--2--2--|--2--2--4--6----6--6--6--|--4--4--4--4--2--2--2--2--|
--4--4--4--4--2--2--2--2--|--0--0--2--4----4--4--4--|--4--4--4--4--2--2--2--2--|
--2--2--2--2--0--0--0--0--|-------------------------|--2--2--2--2--0--0--0--0--|


und dann noch der andere part:
Code:
  F5                         G#5                      
--------------------------|--------------------------|
--------------------------|--------------------------|
--------------------------|--------------------------|
--4--4--4--4--4--4--4--4--|--7--7--7--7--7--7--7--7--|
--4--4--4--4--4--4--4--4--|--7--7--7--7--7--7--7--7--|
--2--2--2--2--2--2--2--2--|--5--5--5--5--5--5--5--5--|


  C#5                                                 
--------------------------|--------------------------|
--------------------------|--------------------------|
--7--7--7--7--7--7--7--7--|--7--7--7--7--7--7--7--7--|
--7--7--7--7--7--7--7--7--|--7--7--7--7--7--7--7--7--|
--5--5--5--5--5--5--5--5--|--5--5--5--5--5--5--5--5--|
--------------------------|--------------------------|

Aber das dann in D# ne?
 
nackenschmerz!
nackenschmerz!
Registrierter Benutzer
Zuletzt hier
01.01.07
Registriert
14.09.04
Beiträge
125
Kekse
44
Ort
ost berlin
also ich kenn da ne ganz andere version.
irgendwie so:

-------------------------------------
-3-3----8-8-8------------5-5-5------
-3-3----6-6-6----6-6-6--3-3-3---------
-1-1-------------4-4-4------------------

1u2 u 3u4u 1u2 u 3u4 u

kann auch sein, dass die falsch aber koingen tut sie echt gut.


PS: yeah...mein hundertster beitrag!!!!!!!!! :rock:
 
Dixiklo
Dixiklo
Registrierter Benutzer
Zuletzt hier
14.07.09
Registriert
29.01.05
Beiträge
731
Kekse
214
Ort
Lingen
nackenschmerz! schrieb:
also ich kenn da ne ganz andere version.
irgendwie so:

-------------------------------------
-3-3----8-8-8------------5-5-5------
-3-3----6-6-6----6-6-6--3-3-3---------
-1-1-------------4-4-4------------------

1u2 u 3u4u 1u2 u 3u4 u

kann auch sein, dass die falsch aber koingen tut sie echt gut.


PS: yeah...mein hundertster beitrag!!!!!!!!! :rock:

??? für welchen teil sind das die Tabs?
 
losferatos
losferatos
Registrierter Benutzer
Zuletzt hier
23.10.09
Registriert
30.05.05
Beiträge
227
Kekse
24
Ort
Berlin
kA soeht aus wie der anfang.
Aber klingt nicht so wirklich toll und sind auch n bisschen schwerer da man z.B. vom 3 ind 8 Bund muss etc.

Das von Skullmurray schaut (und vorallem hört es sich) doch gut an.

MfG
Eric
 
Dixiklo
Dixiklo
Registrierter Benutzer
Zuletzt hier
14.07.09
Registriert
29.01.05
Beiträge
731
Kekse
214
Ort
Lingen
Ja find ich auch, halt in D# und dann geht das doch. Keine Ahnung :)
 
C
clubo
Registrierter Benutzer
Zuletzt hier
02.05.18
Registriert
01.09.04
Beiträge
281
Kekse
0
Ich spiel es wie bei Taborama.com, also im Dropped D Tuning:

Code:
INTRO
E-----------------------------------------------------------0
B-----------------------------------------------------------0
G--10--10--X--8--8--8--X---13--13--15--17----17--17---------0
D--10--10--X--8--8--8--X---13--13--15--17----17--17---------0
A---8---8--X--6--6--6--X---11--11--13--15----15--15---------0
D-----------------------------------------------------------0

Code:
CHORUS
E-----------------------o
B-----------------------o
G-----------------------o 
D--3--1--6--8--10-------o
A--3--1--6--8--10-------o
D--3--1--6--8--10-------o

Code:
THE SECOND GUITAR DOES THIS DURING THE CHORUS:
E--1--1--1--1--1--1--1--1--1--1--1--------O
B-----------------------------------------O
G-----------------------------------------O
D-----------------------------------------O
A-----------------------------------------O
D-----------------------------------------O

Code:
BRIDGE
E---------------------------------------O
B---------------------------------------O 
G---------------------------------------O 
D--3-3-3---6-6-6---10-10-10-10-10-10----O 
A--3-3-3---6-6-6---10-10-10-10-10-10----O
E--3-3-3---6-6-6---10-10-10-10-10-10----O
 

Ähnliche Themen


Neue Themen

Unser weiteres Online-Angebot:
Bassic.de · Deejayforum.de · Sequencer.de · Clavio.de · Guitarworld.de · Recording.de

Musiker-Board Logo
Oben