Böhse Onkelz - Auf gute Freunde solo hilfe!

  • Ersteller Fiffi17
  • Erstellt am
F
Fiffi17
Registrierter Benutzer
Zuletzt hier
26.12.09
Registriert
31.07.08
Beiträge
23
Kekse
0
Hi Leute ich hab mich mal an das Lied Böhse Onkelz - Auf gute Freunde gemacht, einfach weil mir das Lied ewig viel bedeutet. Soviele erinnerungen bla blub aber genug Gefühls gedusel ich kann das Lied so weg spielen auch das Solo das is kein problem. Nur an einer stelle habe ich keine ahnung wie ich es schnell gespielt bekomme. Ich verlink dazu mal aufn youtube cover!

http://www.youtube.com/watch?v=FZMJKrVrFZk

Wunderbar gespielt meiner meinung nach. Genau mit dem tab spiel ichs auch, nur bei 3:37-3:40 (hoffe ihr wisst welche´stell ich meine) das Stück vom solo das so schnell gespielt ist krieg ich net so fix hin..... mit jeder Seite einzeln anschlagen werd ich net schnell genug also wie soll ichs spielen? hammer-ons? pull-offs? arg ka xD brauch ma eure Hilfe bei dem einenen Stück nur für das eine mini stück im solo, rest sitzt bombig!

Danke schonmal an alle und sry wegen Rechtschreibfehlern !

MFG Fiffi
 
Eigenschaft
 
MagTischtennis
MagTischtennis
Registrierter Benutzer
Zuletzt hier
31.03.15
Registriert
19.01.08
Beiträge
1.006
Kekse
3.295
Ort
Dresden
Hoi, ein Neffe!:D
Naja, er nutzt eben nen Wechselanschlag! Und Hammer On. Mehr isses eigentlich nicht!:great:
 
F
Fiffi17
Registrierter Benutzer
Zuletzt hier
26.12.09
Registriert
31.07.08
Beiträge
23
Kekse
0
hmmm und wie genau :p hammer ons und wechselschlag is klar kenn ich alles kann ich alles aber bei den stellen wie genau gespielt =)? is ja immer


e----------------------------------------------------------
b12--10---10--12--10---10--12--10----10--12--10--
g--------11-------------11-------------11------------11
D----------------------------------------------------------
A----------------------------------------------------------
E----------------------------------------------------------


danach direkt


e----------------------------------------------------------
b17--15---15--17--15----15--17--15----15--17--15--
g--------16-------------16-------------16-------------16
D----------------------------------------------------------
A----------------------------------------------------------
E----------------------------------------------------------

müsste so stimmen also wie nun mit hammerons und wechsel schlag kannst emir daraus vllt n tab basteln bin grad bissl verwirrd^^
 
AgentOrange
AgentOrange
Mod Emeritus
Ex-Moderator
Zuletzt hier
27.06.17
Registriert
16.04.04
Beiträge
9.972
Kekse
7.838
Ort
Heidelberg
Erstmal:

Achte ein wenig auf deine Rechtschreibung.


So . .. .
' = Aufschlag
^ = Abschlag
p = Pull-off

Code:
   '     p ^  '     ^    p  '   ^    '     p   etc. . . .  
e----------------------------------------------------------
b12--10---10--12--10---10--12--10----10--12--10--
g--------11-------------11-------------11------------11
D----------------------------------------------------------
A----------------------------------------------------------
E----------------------------------------------------------


danach direkt

  
e----------------------------------------------------------
b17--15---15--17--15----15--17--15----15--17--15--
g--------16-------------16-------------16-------------16
D----------------------------------------------------------
A----------------------------------------------------------
E----------------------------------------------------------

Also immer wechselweise anschlagen
 
F
Fiffi17
Registrierter Benutzer
Zuletzt hier
26.12.09
Registriert
31.07.08
Beiträge
23
Kekse
0
danke <3 xD sry wegen der Rechtschreibung :( net so meine Stärke.^^
 
depi
depi
Registrierter Benutzer
Zuletzt hier
24.03.19
Registriert
03.07.07
Beiträge
222
Kekse
698
Ort
Far Beyond the Sun
Wenn du es so spielen möchtest wie in dem cover video, dann solltest du erstmal deine Gitarre 3 Wochen lang nicht stimmen ;)
 

Ähnliche Themen


Neue Themen

Unser weiteres Online-Angebot:
Bassic.de · Deejayforum.de · Sequencer.de · Clavio.de · Guitarworld.de · Recording.de

Musiker-Board Logo
Oben