Brauche Hilfe bei Grefor Meyle -Soll Ich Dich Befrei'n

  • Ersteller skysurfer0506
  • Erstellt am
S
skysurfer0506
Registrierter Benutzer
Zuletzt hier
21.05.08
Registriert
20.05.08
Beiträge
2
Kekse
0
Hallo Allerseits!

Durch googeln bin ich auf dieses Forum gestossen.

Ich versuche den Song "Soll Ich Dich Befrei'n" von Gregor Meyle rauszuhören.

Als Basis nehme mich dazu seinen Auftritt bei Raab
-> Klick <-

Ich bin bisher ganz gut voran gekommen.
Aber ab 02:41(Ich kämpf für dich weiter..) komme ich nicht weiter. Ich schaffe es nicht die passenden Akkorde rauszuhören.

Es wäre super, wenn mir da vielleicht einer helfen würde.
Bin schon ganz wirr im Kopf:screwy: Hab es bisher fast immer geschafft Akkorde rauszuhören. Hab wahrscheinlich einen Knoten im Ohr ;-)

Das hab ich bisher rausgefunden: (Könnte wetten das ihr den einen oder anderen Fehler findet. Korrektur erwünscht!!!):

4th fret with capo

"Wo willst du hin..."
e|-----0------0------0------0------|
B|-----0------0------7------5------|
G|-----0------8------9------0------|
D|-----6------9------9------0/6----|
A|-----6------8------0------7------|
E|-----0----------------------------|

"Du hast den Glauben..." "Dein Herz ist im..."

e|-----7------5------0------0------|-----7------0------0------0------|
B|-----0------5------5------5------|-----0------6------7------7------|
G|-----0------6------0------0------|-----0------0------0------0------|
D|-----0------7------6------6------|-----0------6------6------6------|
A|-----6------7------7------7------|-----6------0------7------7------|
E|-----7----------------------------|-----7------0--------------------|

"Willst du so sein..." "Willst du das sein..."

e|-----0------0------7------6------|-----0------0------0------0------|
B|-----0------5------0------7------|-----0------6------5------5------|
G|-----0------0------0------6------|-----0------0------0------0------|
D|-----6------6------0------0------|-----6------6------6------6------|
A|-----6------7------6-------------|-----6------0------7------7------|
E|-----0--------------7-------------|-----0------0--------------------|

Jetzt kommt mein Problem.....

"Ich kämpf für dich weiter.."

e|-----?------0------0------7------|-----?------?------?------?------|
B|-----?------8------0------0------|-----?------?------?------?------|
G|-----?------9------0------0------|-----?------?------?------?------|
D|-----?------8------6------0------|-----?------?------?------?------|
A|-----?------9------6------6------|-----?------?------?------?------|
E|-----?-------------0------7------|-----?------?------?------?------|


Ich hoffe mir kann jemand helfen.

Schon mal vielen Dank im vorraus.

Gruß Skysurfer
 
Eigenschaft
 
B.E.M.
B.E.M.
Registrierter Benutzer
Zuletzt hier
19.07.10
Registriert
09.04.07
Beiträge
48
Kekse
0
Ort
Bremen
Kann ich dir leider auch nicht weiterhelfen, aber nach meinem Verständnis stimmen die Tabs nicht mehr, wenn du n Capo dran hast.
Der erste Takt wäre dann so!
e|-----0------0------0------0------|
B|-----0------0------3------1------|
G|-----0------3------5------0------|
D|-----2------4------5------0/2----|
A|-----2------3------0------3------|
E|-----0----------------------------|

Sonst hört sich das auf jeden Fall schon gut an, kann dir aber leider nicht weiterhelfen.
 
S
skysurfer0506
Registrierter Benutzer
Zuletzt hier
21.05.08
Registriert
20.05.08
Beiträge
2
Kekse
0
Kann ich dir leider auch nicht weiterhelfen, aber nach meinem Verständnis stimmen die Tabs nicht mehr, wenn du n Capo dran hast.
Der erste Takt wäre dann so!
e|-----0------0------0------0------|
B|-----0------0------3------1------|
G|-----0------3------5------0------|
D|-----2------4------5------0/2----|
A|-----2------3------0------3------|
E|-----0----------------------------|

Sonst hört sich das auf jeden Fall schon gut an, kann dir aber leider nicht weiterhelfen.


Stimmt. Da hast du Recht. Ist mein erstes TAB ;-)

Werd es mal ändern. Aber trotzdem danke.
Habs übrigens immer noch nicht geschafft :(

Gruß Skysurfer
 

Ähnliche Themen


Neue Themen

Unser weiteres Online-Angebot:
Bassic.de · Deejayforum.de · Sequencer.de · Clavio.de · Guitarworld.de · Recording.de

Musiker-Board Logo
Oben