Frage: Reinvention

Umbras
Umbras
Registrierter Benutzer
Zuletzt hier
14.03.14
Registriert
14.03.08
Beiträge
100
Kekse
19
D|---------------------------------|---------------------------------|---------------------------------|
a|---------------------------------|---------------------------------|---------------------------------|
f|---------------------------------|---------------------------------|---------------------------------|
c|---------------------------------|---------------------------------|---------------------------------|
g|---------7-------8-------7-------|-10------8-------7-------8-------|---------7-------8-------7-------|
c|-0---0-------0-------0-------0---|-----0-------0-------0-------0---|-0---0-------0-------0-------0---|


d|---------------------------------|---------------------------------|---------------------------------|
a|---------------------------------|---------------------------------|---------------------------------|
f|---------------------------------|---------------------------------|---------------------------------|
c|---------------------------------|---------------------------------|---------------------------------|
g|-10------8-------7-------8-------|---------7-------8-------7-------|-10------8-------7-------8-------|
c|-----0-------0-------0-------0---|-8---8-------8-------8-------8---|-----8-------8-------8-------8---|


wie würdet ihr das in takt 5 und 6 spielen?

Danke
 
Eigenschaft
 
suscal
suscal
Registrierter Benutzer
Zuletzt hier
29.02.12
Registriert
27.11.09
Beiträge
74
Kekse
533
Mit dem Mittelfinger auf dem achten Bund, der bei Bedarf beide Saiten greift und sonst von Zeige- bzw. kleinem Finger unterstützt wird.
 
J
JBJHJM
Registrierter Benutzer
Zuletzt hier
30.10.18
Registriert
29.04.08
Beiträge
736
Kekse
858
Ort
Hamburg
Mittelfinger achter Bund E-Saite, die anderen greifen die Töne auf der A-Saite. Hier würde ich keinen Barree machen, das dürfte recht schnell unsauber klingen, einzeln greifen klingt knackiger.
 
Helldevil
Helldevil
Registrierter Benutzer
Zuletzt hier
30.11.21
Registriert
10.11.07
Beiträge
524
Kekse
697
Ort
Stuttgart
bin auch JBJHJMs Meinung und würde die Töne auf der a-Saite einzeln greifen. Also 7 Zeigefinger, 8 ingfinger und 10 kleiner Finger.

MfG,
Christian
 

Ähnliche Themen


Neue Themen

Unser weiteres Online-Angebot:
Bassic.de · Deejayforum.de · Sequencer.de · Clavio.de · Guitarworld.de · Recording.de

Musiker-Board Logo
Oben