Bring me to Life

von Mick #7, 03.02.04.

  1. Mick #7

    Mick #7 Registrierter Benutzer

    Im Board seit:
    03.02.04
    Zuletzt hier:
    11.11.13
    Beiträge:
    602
    Ort:
    Frankfurt/Maintal
    Zustimmungen:
    0
    Kekse:
    187
    Erstellt: 03.02.04   #1
    Moinsen Jungs ;)
    Bin neu hier und hab en paar fragen.
    In der schule sollen wir ne band machen und ich weiss schon genau was wir spielen sollen etc. das sollte dann wohl "bring me to life" von Evanescence sein. 2 männer , 2 gitarren , 1 bass und 1 schlagzeug.

    jez zu meinen fragen. Ich bräuchste den ORIGINAL Tab für gitarre von dem Lied. Alles was ich z.B. auf www.taborama.com gesehen habe is schwachsinn. das is nich richtig. am besten wäre der Live- tab... (ich will ja auch net zu viel verlangen *hehe* )

    und noch ne bitte... gibt es vielleicht einen netten bass-spieler der mir ne coole bass-line für das lied macht!? halt son bissi schwieriger für nen 4-saiter!? wäre echt goil wenns einer machen könnte!

    danke schon ma im vorraus!
     
  2. Scary Guy

    Scary Guy Registrierter Benutzer

    Im Board seit:
    06.09.03
    Zuletzt hier:
    22.06.13
    Beiträge:
    730
    Zustimmungen:
    4
    Kekse:
    254
    Erstellt: 03.02.04   #2
    schau mal in dem Angepinnten Thread hier in dem Subforum da gibts ziemlich viele Tab seiten, ich würd mal bei www.ultimate-guitar.com
    gucken ich meine da wären die richtigen dabei.Wegen der BAss-line kann ich dir nicht helfen sorry
     
  3. stechner

    stechner Registrierter Benutzer

    Im Board seit:
    04.10.03
    Zuletzt hier:
    7.11.06
    Beiträge:
    81
    Zustimmungen:
    0
    Kekse:
    10
    Erstellt: 03.02.04   #3
    hat die band echt keinen basser?
     
  4. TheSleeper

    TheSleeper Registrierter Benutzer

    Im Board seit:
    04.12.03
    Zuletzt hier:
    26.04.05
    Beiträge:
    172
    Zustimmungen:
    0
    Kekse:
    10
    Erstellt: 03.02.04   #4
    Mhh, jedenfalls ist die Band scheisse...
     
  5. Mick #7

    Mick #7 Threadersteller Registrierter Benutzer

    Im Board seit:
    03.02.04
    Zuletzt hier:
    11.11.13
    Beiträge:
    602
    Ort:
    Frankfurt/Maintal
    Zustimmungen:
    0
    Kekse:
    187
    Erstellt: 03.02.04   #5
    hmmm!? die band hattnen bassisten. nur ich brauch e gescheite bass-line für das lied.^^ der post das sie scheisse sind hättest dir auch sparen können - spammer
     
  6. Domo

    Domo Helpful & Friendly User HFU

    Im Board seit:
    31.08.03
    Zuletzt hier:
    20.09.16
    Beiträge:
    10.963
    Zustimmungen:
    77
    Kekse:
    13.607
    Erstellt: 03.02.04   #6
    Gitarre:

    [code:1] Bring Me to Life


    Guitar

    E||------|------|------|------|------|------|------|------|------|------|------|
    B||------|------|------|------|------|------|------|------|------|------|------|
    G||------|------|------|------|------|------|------|------|------|------|------|
    D||------|------|------|------|------|------|------|------|------|------|------|
    A||------|------|------|------|------|------|------|------|------|------|------|
    E||------|------|------|------|------|------|------|------|------|------|------|



    ------|-------------------|--------------------------|
    ------|-------------------|--------------------------|
    ------|-------------------|--------------------------|
    ------|--2----------------|--------------------------|
    ------|--2----------------|--2-2--2-2--2-2--2-2------|
    ------|--0----------------|--0-0--0-0--0-0--0-0------|



    ----------------------------|--------------------------|
    ----------------------------|--------------------------|
    ----------------------------|--------------------------|
    -------------------------2~-|--------------------------|
    ---2-2--2-2--2-2--2---------|--3-3--3-3--3-3--3-3------|
    ---0-0--0-0--0-0--0--0-0----|--0-0--0-0--0-0--0-0------|



    ----------------------------|--------------------------|
    ----------------------------|--------------------------|
    ----------------------------|--------------------------|
    ----------------------------|--------------------------|
    ---3-3--3-3--3-3--3------3--|--2-2--2-2--2-2--2-2------|
    ---0-0--0-0--0-0--0--0-0----|--0-0--0-0--0-0--0-0------|



    ----------------------------|--------------------------|
    ----------------------------|--------------------------|
    ----------------------------|--------------------------|
    -------------------------2~-|--------------------------|
    ---2-2--2-2--2-2--2---------|--3-3--3-3--3-3--3-3------|
    ---0-0--0-0--0-0--0--0-0----|--0-0--0-0--0-0--0-0------|



    ----------------------------|----------||------------------------|
    ----------------------------|----------||------------------------|
    ----------------------------|----------||*-----------------------|
    ----------------------------|----------||*--2---2-2---2---2------|
    ---3-3--3-3--3-3--3------3--|----------||---2---2-2---2---2------|
    ---0-0--0-0--0-0--0--0-0----|----------||---0---0-0---0---0------|



    -----------------------|-----------------------|--------0---------------||
    -----------------------|--3---3-3---3---3------|--------0---------------||
    -----------------------|--2---2-2---2---2------|-----------------------*||
    --5---5-5---5---5------|--0---0-0---0---0------|--2---2----------------*||
    --5---5-5---5---5------|-----------------------|--2---2------0----3-----||
    --3---3-3---3---3------|-----------------------|--0---0-----------------||



    -----------------------------|------------------------------|
    -----------------------------|------------------------------|
    -----------------------------|------------------------------|
    -----------------------------|------------------------------|
    --2-2--2-2--2-2--2-2------3--|--2-2--2-2--2-2--2-2--2-2-2-2-|
    --0-0--0-0--0-0--0-0--0-0----|--0-0--0-0--0-0--0-0--0-0-0-0-|



    ----------------------------|------------------------------|
    ----------------------------|------------------------------|
    ----------------------------|------------------------------|
    -------------------------2~-|------------------------------|
    ---2-2--2-2--2-2--2---------|--3-3--3-3--3-3--3-3--3-3-3-3-|
    ---0-0--0-0--0-0--0--0-0----|--0-0--0-0--0-0--0-0--0-0-0-0-|



    ----------------------------|------------------------------|
    ----------------------------|------------------------------|
    ----------------------------|------------------------------|
    ----------------------------|------------------------------|
    ---3-3--3-3--3-3--3------3--|--2-2--2-2--2-2--2-2--2-2-2-2-|
    ---0-0--0-0--0-0--0--0-0----|--0-0--0-0--0-0--0-0--0-0-0-0-|



    ----------------------------|------------------------------|
    ----------------------------|------------------------------|
    ----------------------------|------------------------------|
    -------------------------2~-|------------------------------|
    ---2-2--2-2--2-2--2---------|--3-3--3-3--3-3--3-3--3-3-3-3-|
    ---0-0--0-0--0-0--0--0-0----|--0-0--0-0--0-0--0-0--0-0-0-0-|



    ----------------------------|---||------------------------|
    ----------------------------|---||------------------------|
    ----------------------------|---||*-----------------------|
    ----------------------------|---||*--2---2-2---2---2------|
    ---3-3--3-3--3-3--3------3--|---||---2---2-2---2---2------|
    ---0-0--0-0--0-0--0--0-0----|---||---0---0-0---0---0------|



    -----------------------|-----------------------|--------0---------------||
    -----------------------|--3---3-3---3---3------|--------0---------------||
    -----------------------|--2---2-2---2---2------|-----------------------*||
    --5---5-5---5---5------|--0---0-0---0---0------|--2---2----------------*||
    --5---5-5---5---5------|-----------------------|--2---2------0----3-----||
    --3---3-3---3---3------|-----------------------|--0---0-----------------||



    --------------------------||-----------------------|----------------------|
    --------------------------||-----------------------|----------------------|
    --------------------------||*--5-------------------|--7-------------------|
    --------------------------||*--5-------------------|--7-------------------|
    --2---2-2---2---2--2-2-2--||---3-------------------|--5-------------------|
    --0---0-0---0---0--0-0-0--||---3--------0----0-0---|--5--------0----0-0---|



    ------------------------------|-----------------------------||
    ------------------------------|-----------------------------||
    ------------------------------|----------------------------*||
    ------------------------------|-------------------------2~-*||
    --2-2--2-2--2-2--2-2--2-2-2-2-|---2-2--2-2--2-2--2----------||
    --0-0--0-0--0-0--0-0--0-0-0-0-|---0-0--0-0--0-0--0--0-0-----||



    ----------------------|--------------------|-------------------|
    ----------------------|-----------0--------|-------------------|
    ----------------------|--------------------|-------------------|
    ----------------------|--------------------|-------------------|
    --2--------------2----|--0-----------------|-------------------|
    --0----2----3---------|--------------------|--3----------------|



    -------------------|----------------------|--------------------|
    -------------------|----------------------|-----------0--------|
    -------------------|----------------------|--------------------|
    -------------------|----------------------|--------------------|
    -------------------|--2--------------2----|--0-----------------|
    --2----------------|--0----2----3---------|--------------------|



    --------------------|-------------------|------------------|
    -----------0--------|--7----------------|------------------|
    --------------------|--9----------------|------------------|
    --------------------|-------------------|------------------|
    --------------------|-------------------|------------------|
    --3-----------------|-------------------|------------------|



    |-------------------------------|----------------------------|
    |-------------------------------|----------------------------|
    |*------------------------------|----------------------------|
    |*------------------------------|-------------------------2~-|
    |---2-2--2-2--2-2--2-2--2-2-2-2-|---2-2--2-2--2-2--2---------|
    |---0-0--0-0--0-0--0-0--0-0-0-0-|---0-0--0-0--0-0--0--0-0----|



    ------------------------------|-----------------------------||
    ------------------------------|-----------------------------||
    ------------------------------|----------------------------*||
    ------------------------------|----------------------------*||
    --3-3--3-3--3-3--3-3--3-3-3-3-|---3-3--3-3--3-3--3------3---||
    --0-0--0-0--0-0--0-0--0-0-0-0-|---0-0--0-0--0-0--0--0-0-----||



    ------------------------------|-----------------------------|
    ------------------------------|-----------------------------|
    ------------------------------|-----------------------------|
    ------------------------------|-----------------------------|
    --3-3--3-3--3-3--3-3--3-3-3-3-|---5-5--5-5--5-5--0--0-0-0-0-|
    --0-0--0-0--0-0--0-0--0-0-0-0-|---0-0--0-0--0-0-------------|



    |------------------------|-----------------------|-----------------------|
    |------------------------|-----------------------|--3---3-3---3---3------|
    |*-----------------------|-----------------------|--2---2-2---2---2------|
    |*--2---2-2---2---2------|--5---5-5---5---5------|--0---0-0---0---0------|
    |---2---2-2---2---2------|--5---5-5---5---5------|-----------------------|
    |---0---0-0---0---0------|--3---3-3---3---3------|-----------------------|



    --------------------||-----------------------------|
    --------------------||-----------------------------|
    --------------4----*||-----------------------------|
    --------------2----*||-----------------------------|
    --------------2-----||--2-2--2-2--2-2--2-2--2-2-2--|
    --------------0-----||--0-0--0-0--0-0--0-0--0-0-0--|



    ------------------------------|------------------------------|
    ------------------------------|------------------------------|
    --5---5-5---5-5-5-5-5-5-5-5-5-|--7---7-7---7-7-7-7-7-7-7-7-7-|
    --5---5-5---5-5-5-5-5-5-5-5-5-|--7---7-7---7-7-7-7-7-7-7-7-7-|
    --3---3-3---3-3-3-3-3-3-3-3-3-|--5---5-5---5-5-5-5-5-5-5-5-5-|
    --3---3-3---3-3-3-3-3-3-3-3-3-|--5---5-5---5-5-5-5-5-5-5-5-5-|



    ------------------------------|---------------------|
    ------------------------------|---------------------|
    ------------------------------|---------------------|
    ------------------------------|---------------------|
    --2-2--2-2--2-2--2-2--2-2-2-2-|--2--------2----2----|
    --0-0--0-0--0-0--0-0--0-0-0-0-|--0--------0----0----|



    ------------------------------|------------------------------|
    ------------------------------|------------------------------|
    --5---5-5---5-5-5-5-5-5-5-5-5-|--7---7-7---7-7-7-7-7-7-7-7-7-|
    --5---5-5---5-5-5-5-5-5-5-5-5-|--7---7-7---7-7-7-7-7-7-7-7-7-|
    --3---3-3---3-3-3-3-3-3-3-3-3-|--5---5-5---5-5-5-5-5-5-5-5-5-|
    --3---3-3---3-3-3-3-3-3-3-3-3-|--5---5-5---5-5-5-5-5-5-5-5-5-|



    -------------------|------------------|------------------|------------------|
    -------------------|------------------|------------------|------------------|
    -------------------|------------------|------------------|------------------|
    --2----------------|------------------|------------------|------------------|
    --2----------------|------------------|------------------|------------------|
    --0----------------|------------------|------------------|------------------|



    ------------------|------------------|------------------|------------------|
    ------------------|------------------|------------------|------------------|
    ------------------|------------------|------------------|------------------|
    ------------------|------------------|------------------|------------------|
    ------------------|------------------|------------------|------------------|
    ------------------|------------------|------------------|------------------|



    ------------------||
    ------------------||
    ------------------||
    ------------------||
    ------------------||
    ------------------||

    [/code:1]



    Bass:

    [code:1]
    Bring Me to Life


    Bass

    G||------|------|------|------|------|------|------|------|------|------|------|
    D||------|------|------|------|------|------|------|------|------|------|------|
    A||------|------|------|------|------|------|------|------|------|------|------|
    E||------|------|------|------|------|------|------|------|------|------|------|
    B||------|------|------|------|------|------|------|------|------|------|------|



    ------|-------------------|------------------------------|
    ------|-------------------|------------------------------|
    ------|-------------------|------------------------------|
    ------|--0----------------|--0-0--0-0--0-0--0-0--0-0-0-0-|
    ------|-------------------|------------------------------|



    ------------------------------|------------------------------|
    ------------------------------|------------------------------|
    ------------------------------|------------------------------|
    --x-0-0--0-0--0-0--0--0-0-0-0-|--0-0--0-0--0-0--0-0--0-0-0-0-|
    ------------------------------|------------------------------|



    ------------------------------|------------------------------|
    ------------------------------|------------------------------|
    ------------------------------|------------------------------|
    --x-0-0--0-0--0-0--0--0-0-0-0-|--0-0--0-0--0-0--0-0--0-0-0-0-|
    ------------------------------|------------------------------|



    ------------------------------|------------------------------|
    ------------------------------|------------------------------|
    ------------------------------|------------------------------|
    --x-0-0--0-0--0-0--0--0-0-0-0-|--0-0--0-0--0-0--0-0--0-0-0-0-|
    ------------------------------|------------------------------|



    ------------------------------|----------||------------------------|
    ------------------------------|----------||*-------2---------------|
    ------------------------------|----------||------------------------|
    --x-0-0--0-0--0-0--0--0-0-0-0-|----------||*--0--------0---0--0----|
    ------------------------------|----------||------------------------|



    -------------------------|-------------------------|
    ---------5---------------|-------------------------|
    -------------------------|---------5---------------|
    --3-3--3-----3---3--3----|-------------------------|
    -------------------------|--3-3--3-----3---3--3----|



    -----------------------------||----|------------------------------|
    --------2-------------------*||----|------------------------------|
    --------------------5-0------||----|------------------------------|
    --0--0------0--0--0-----3---*||----|--0-0--0-0--0-0--0-0--0-0-0-0-|
    --------------------------3--||----|------------------------------|



    ------------------------------|------------------------------|
    ------------------------------|------------------------------|
    ------------------------------|------------------------------|
    --x-0-0--0-0--0-0--0--0-0-0-0-|--0-0--0-0--0-0--0-0--0-0-0-0-|
    ------------------------------|------------------------------|



    ------------------------------|------------------------------|
    ------------------------------|------------------------------|
    ------------------------------|------------------------------|
    --x-0-0--0-0--0-0--0--0-0-0-0-|--0-0--0-0--0-0--0-0--0-0-0-0-|
    ------------------------------|------------------------------|



    ------------------------------|------------------------------|
    ------------------------------|------------------------------|
    ------------------------------|------------------------------|
    --x-0-0--0-0--0-0--0--0-0-0-0-|--0-0--0-0--0-0--0-0--0-0-0-0-|
    ------------------------------|------------------------------|



    ------------------------------|---||------------------------|
    ------------------------------|---||*-------2---------------|
    ------------------------------|---||------------------------|
    --x-0-0--0-0--0-0--0--0-0-0-0-|---||*--0--------0---0--0----|
    ------------------------------|---||------------------------|



    -------------------------|-------------------------|
    ---------5---------------|-------------------------|
    -------------------------|---------5---------------|
    --3-3--3-----3---3--3----|-------------------------|
    -------------------------|--3-3--3-----3---3--3----|



    -----------------------------||----------------------------|
    --------2-------------------*||--------2-------------------|
    --------------------5-0------||--------------------5-0-----|
    --0--0------0--0--0-----3---*||--0--0------0--0--0-----3---|
    --------------------------3--||--------------------------3-|



    |-----------------------|----------------------|------------------------------|
    |*----------------------|----------------------|------------------------------|
    |---3---3---------------|--5---5---------------|------------------------------|
    |*----------3--3--------|----------------------|--0-0--0-0--0-0--0-0--0-0-0-0-|
    |-----------------------|----------3--3--------|------------------------------|



    ------------------------------||----------------------|
    -----------------------------*||----------------------|
    ------------------------------||-----------------2----|
    ---0-0--0-0--0-0--0--0-0-0-0-*||--0----2----3---------|
    ------------------------------||----------------------|



    --------------2--------2-|--0--------------------|------------------------|
    ----------2h5--------4---|------4----------------|--------------4----4----|
    --0---0------------------|----------0------------|----------0h2-----------|
    -------------------------|------------3-0--------|--2---2-----------------|
    -------------------------|-----------------------|------------------------|



    ----------------------|--------------2--------2-|--0--------------------|
    ----------------------|----------2h5--------4---|------4----------------|
    -----------------2----|--0---0------------------|----------0------------|
    --0----2----3---------|-------------------------|------------3-0--------|
    ----------------------|-------------------------|-----------------------|



    ------------------------|------||-------------------------------|
    --------------4----4----|------||*------------------------------|
    ----------0h2-----------|------||-------------------------------|
    --2---2-----------------|------||*--0-0--0-0--0-0--0-0--0-0-0-0-|
    ------------------------|------||-------------------------------|



    ------------------------------|------------------------------|
    ------------------------------|------------------------------|
    ------------------------------|------------------------------|
    --x-0-0--0-0--0-0--0--0-0-0-0-|--0-0--0-0--0-0--0-0--0-0-0-0-|
    ------------------------------|------------------------------|



    ---------------------------------||------------------------------|
    ----------------------2---------*||------------------------------|
    ----------------0-2-3---0h2------||--3-3--3-3--3-3--3-3--5-5-5-5-|
    --x-0-0--0-0--0-------------2h3-*||------------------------------|
    ---------------------------------||------------------------------|



    -------------------------------||------------------------|
    -------------------4-5-4-2-0h4-||*-------2---------------|
    ---5-5--5-5--5-----------------||------------------------|
    ---------------3-5-------------||*--0--------0---0--0----|
    -------------------------------||------------------------|



    -------------------------|-------------------------|--------------------||
    ---------5---------------|-------------------------|-------------------*||
    -------------------------|---------5---------------|--------------------||
    --3-3--3-----3---3--3----|-------------------------|--------------7/---*||
    -------------------------|--3-3--3-----3---3--3----|--------------------||



    ----------------------------|-------------------------|
    --------2-------------------|-------------------------|
    --------------------5-0-----|--3---2-3--2-3--2-3------|
    --0--0------0--0--0-----3---|-------------------------|
    --------------------------3-|-------------------------|



    -------------------------|------------------------------|----------------------|
    -------------------------|------------------------------|----------------------|
    --5-----5----------------|------------------------------|-----------------0----|
    -------------------------|--0-0--0-0--0-0--0-0--0-0-0-0-|--0----2----3---------|
    ------3-----3--3---3--3--|------------------------------|----------------------|



    ---------------------------|-----------------------------|-------------------|
    ----------------5--4--2----|-----------------------------|-------------------|
    --3---2-3--2-3----------3--|--5-5--5-5----5----5--5------|-------------------|
    ---------------------------|------------5----5------5----|--0----------------|
    ---------------------------|--------------------------3--|-------------------|



    ------------------|------------------|------------------|------------------|
    ------------------|------------------|------------------|------------------|
    ------------------|------------------|------------------|------------------|
    ------------------|------------------|------------------|------------------|
    ------------------|------------------|------------------|------------------|



    ------------------|------------------|------------------|------------------||
    ------------------|------------------|------------------|------------------||
    ------------------|------------------|------------------|------------------||
    ------------------|------------------|------------------|------------------||
    ------------------|------------------|------------------|------------------||


    [/code:1]



    Der Piano-Part an Anfang und Ende:

    [code:1]
    Bring Me to Life


    Piano 1

    E||--------|--19----17--19------20----|----24------19----------|
    B||----17--|--------------------------|--------------------17--|
    G||--------|--------------------------|------------------------|
    D||--------|--------------------------|------------------------|
    A||--------|--------------------------|------------------------|
    E||--------|--------------------------|------------------------|



    --19----17--19------20----|----24------19----------|--19----17--19------20----|
    --------------------------|--------------------17--|--------------------------|
    --------------------------|------------------------|--------------------------|
    --------------------------|------------------------|--------------------------|
    --------------------------|------------------------|--------------------------|
    --------------------------|------------------------|--------------------------|



    ----24------19----------|--19----17--19------20----|----24------19----------|
    --------------------17--|--------------------------|--------------------17--|
    ------------------------|--------------------------|------------------------|
    ------------------------|--------------------------|------------------------|
    ------------------------|--------------------------|------------------------|
    ------------------------|--------------------------|------------------------|



    --19----17--19------20----|----24------19----------|--19----17--19------20----|
    --------------------------|--------------------17--|--------------------------|
    --------------------------|------------------------|--------------------------|
    --------------------------|------------------------|--------------------------|
    --------------------------|------------------------|--------------------------|
    --------------------------|------------------------|--------------------------|



    ----24------19--------|----------|----------|----------|----------|----------|
    ----------------------|----------|----------|----------|----------|----------|
    ----------------------|----------|----------|----------|----------|----------|
    ----------------------|----------|----------|----------|----------|----------|
    ----------------------|----------|----------|----------|----------|----------|
    ----------------------|----------|----------|----------|----------|----------|
    [/code:1]
     
  7. Christoph

    Christoph Registrierter Benutzer

    Im Board seit:
    18.08.03
    Zuletzt hier:
    6.12.16
    Beiträge:
    1.013
    Ort:
    H-Haus
    Zustimmungen:
    0
    Kekse:
    87
    Erstellt: 03.02.04   #7
    Also das Lied kann man wirklich selber raushören...außerdem ist das Forum auch nicht dazu da von Leuten zu verlangen irgendwelche Licks/Riffs sich auszudenken.

    Tipp: es gibt hier im "Tabs & Spieltechniken" ein Thread wo allmöglichen Tabsseiten drinstehen.
     
  8. roastbeef

    roastbeef Registrierter Benutzer

    Im Board seit:
    30.11.03
    Zuletzt hier:
    25.07.16
    Beiträge:
    3.424
    Ort:
    Graz
    Zustimmungen:
    72
    Kekse:
    4.088
    Erstellt: 04.02.04   #8
    aber fragen darf er doch oder?
     
Die Seite wird geladen...

mapping