children of bodom-children of bodom wie spiel ich das ....

  • Ersteller dabeginna
  • Erstellt am
dabeginna
dabeginna
Registrierter Benutzer
Zuletzt hier
25.06.09
Registriert
02.02.05
Beiträge
7
Kekse
0
Ort
Menden
kann mir da jemand helfen ich bekomm es nicht hin :-(((

<!--StartFragment-->guitar 1 Riff A1
|-----------------|-----------------|-----------------|-----------------|
|-----------------|-----------------|-----------------|-----------------|
|-----------------|-----------------|---------------7-|-----7---6s7---7-|
|---------------9-|-----9---------9-|-----9---7h9---9-|-----9---9-----9-|
|---------------7-|---7-7-7-7-7-7-7-|---7-7-7-7---x---|-----------------|
|----/12\---------|-----------------|-----------------|---7---7-----7---|


|-----------------|-----------------|-----------------|-----------------|
|-----------------|-----------------|-----------------|-----------------|
|-----7---6s7---5-|-----5---4s5-----|-----------------|-----------------|
|-----9---9-----7-|-----7---6s7-----|-----5-------4---|-----0-2-3-2-----|
|-----------------|---------------3-|-3-3-3-3-5-5-5-5-|-----0-2-3-2-----|
|-7-7---7-----7---|---5---5-----x---|-----------------|-0-0---------0-0-|

nochmal der link zum tab Children Of Bodom Tab (ver 2) by Children Of Bodom @ Ultimate-Guitar.Com
 
Eigenschaft
 
In dem --> Thread findest Du eine Guitar Pro Tab (falls Du das Programm hast). ;)
 
Beschreib genauer was du nich hinbekommst und versuch mal die GP4 Datei,die ich ( im oben verlinkten thread ( danke kaylessa ;) ) ) gepostet habe.
 
Ich weiß nicht welche finger ich wo hin legen muss speziell ab dem teil wo man anfängt die G seite zu nutzen

|-----------------|-----------------|-----------------|-----------------|
|-----------------|-----------------|-----------------|-----------------|
|-----------------|-----------------|---------------7-|-----7---6s7---7-|
|---------------9-|-----9---------9-|-----9---7h9---9-|-----9---9-----9-|
|---------------7-|---7-7-7-7-7-7-7-|---7-7-7-7---x---|-----------------|
|----/12\---------|-----------------|-----------------|---7---7-----7---|


|-----------------|-----------------|-----------------|-----------------|
|-----------------|-----------------|-----------------|-----------------|
|-----7---6s7---5-|-----5---4s5-----|-----------------|-----------------|
|-----9---9-----7-|-----7---6s7-----|-----5-------4---|-----0-2-3-2-----|
|-----------------|---------------3-|-3-3-3-3-5-5-5-5-|-----0-2-3-2-----|
|-7-7---7-----7---|---5---5-----x---|-----------------|-0-0---------0-0-|
 
Ich rate dir von diesem Tab abzulassen,da sich das Ding nich ganz richtig anhört.
Guck mal Anhang...da is die Stelle wohl eindeutiger.
 

Anhänge

  • children of bodom - children of bodom - page 1.JPG
    children of bodom - children of bodom - page 1.JPG
    103,4 KB · Aufrufe: 304
cool das is ja angenehm hast du auch diese geile hohe melodic einlage die sich dann drüber legt??
gruß
 
Bitte !
 

Anhänge

  • children of bodom - children of bodom - page 1.JPG
    children of bodom - children of bodom - page 1.JPG
    85,5 KB · Aufrufe: 288

Ähnliche Themen


Unser weiteres Online-Angebot:
Bassic.de · Deejayforum.de · Sequencer.de · Clavio.de · Guitarworld.de · Recording.de

Musiker-Board Logo
Zurück
Oben