Dimmu Borgir "Burn in Hell" Solo

von Der Chief, 22.01.04.

  1. Der Chief

    Der Chief Registrierter Benutzer

    Im Board seit:
    28.09.03
    Zuletzt hier:
    8.09.08
    Beiträge:
    255
    Zustimmungen:
    0
    Kekse:
    150
    Erstellt: 22.01.04   #1
    Hallo,

    ich habe mal eine Frage zum Anfang des Burn in Hell Solos.
    Und zwar habe ich eine Frage zu der Stelle welche bei Minute 3:04 beginnt.
    Hier erstmal die Tabulaturen die ich verwende:

    [code:1]x8
    |----------------------------|----------------------|
    |-12-10-8-10-8----8----------|----19-17-15----------|
    |--------------11---11-9-7-9-|-*-----------17-16--*-|
    |----------------------------|-*------------------*-|
    |----------------------------|----------------------|
    |----------------------------|----------------------|
    [/code:1]

    Das Problem liegt nicht direkt am Anfang des Solos sondern ab der Stelle mit diesen Sternchen -> *
    Mein Lehrer meinte das stimmt nicht so wie das in den Tabulaturen steht, und hat mir so da was anderes mit Bleistift drübergeschrieben.
    Allerdings kriege ich es jetzt auch nicht hin nach seinen Angaben zu spielen...passt irgendwie auch nicht.
    Nun frage ich euch, wie ihr diese Stelle (die zwsichen den Sternchen) spielt.
    Nochmal zur Info: Ab der folgenden Stelle kann ich dann wieder nach den Tabulaturen spielen ->

    [code:1]|-17-15-12-17-15-12-------------------------|
    |-------------------17-15-12-17-15-12-12----|
    |----------------------------------------16-|
    |-------------------------------------------|
    |-------------------------------------------|
    |-------------------------------------------|
    [/code:1] ...usw. =)

    Also ich wär wirklich dankbar wenn ihr mir sagen könntet welche Bünde ich spielen bzw Benden muss.

    Gruß,
    Der Chief!
     
  2. Kurt_Anhänger

    Kurt_Anhänger Registrierter Benutzer

    Im Board seit:
    21.01.04
    Zuletzt hier:
    12.06.09
    Beiträge:
    316
    Ort:
    Wien
    Zustimmungen:
    0
    Kekse:
    53
    Erstellt: 22.01.04   #2
    hm da muss ich glatt mein Puritanical Euphoric Misantrophia auspackn......hmhm ich kann dir zwar nicht helfen aber ich finds geil wennst das solo draufhast dann kannst ja bald mal das von "Metal Heart" spieln :D
     
  3. Der Chief

    Der Chief Threadersteller Registrierter Benutzer

    Im Board seit:
    28.09.03
    Zuletzt hier:
    8.09.08
    Beiträge:
    255
    Zustimmungen:
    0
    Kekse:
    150
    Erstellt: 22.01.04   #3
    Sorry leute falscher alarm!ich hab mir mal ne andere version der tabulaturen besorgt wo man besser feststellen kann wann genau welcher teil des solos gespielt wird und jetzt weiß ich auch das das was dort steht richtig ist!!!
    kommt halt mal vor :rolleyes:

    danke an alle die sich mühe gemacht haben oder machen wollten ;)
    der chief
     
Die Seite wird geladen...

mapping