Problem bei Leper Messiah Solo

von 101010-fender, 27.02.05.

  1. 101010-fender

    101010-fender Registrierter Benutzer

    Im Board seit:
    20.08.03
    Zuletzt hier:
    2.10.12
    Beiträge:
    1.576
    Zustimmungen:
    1
    Kekse:
    1.930
    Erstellt: 27.02.05   #1
    Hi Leutz,
    könntet ihr mir sagen wie man diese Stelle spielen soll :
    Code:
    |--19h-15--------------15--19h-15--------------15--|
    |----------17------17--------------17------17------|
    |--------------16----------------------16----------|
    --------------------------------------------------|
    |--------------------------------------------------|
    |--------------------------------------------------|
    
    
                                                       
    --19h-15--------------15--19h-15--------------15--|
    ----------17------17--------------17------17------|
    --------------16----------------------16----------|
    --------------------------------------------------|
    --------------------------------------------------|
    --------------------------------------------------|
    
    
                                                       
    --20h-17--------------17--20h-17--------------17--|
    ----------18------18--------------18------18------|
    --------------17----------------------17----------|
    --------------------------------------------------|
    --------------------------------------------------|
    --------------------------------------------------|
    
    
                                                       
    --22h-19--------------19--22h-19--------------19--|
    ----------20------20--------------20------20------|
    --------------19----------------------19----------|
    --------------------------------------------------|
    --------------------------------------------------|
    --------------------------------------------------|
    
    Ich hab solche Stellen bei Creeping Death auch schon gesehen und mich gefragt, wie man das spielen soll.

    Mit dem Mittelfinger die 16, mit dem Ringfinger die 17, mit dem Zeigefinger die 15 und das Pull-Off mit dem kleinen Finger, so weit bin ich bis jetzt :p
    Nein, also muss bis zum Pull-Off alle Saiten mit Aufschlag hochgehen und wenn man das Pull-Off gemacht hat mit Abschlag runtergehen ? Ich hab rumprobiert und 1. vermischen sich die verzerrten Töne zu sehr und es hört sich komisch an und 2. ist das nicht gerade leicht, das auf diese Weiße zu spielen. Mach ich das richtig ?
     
  2. thomas.h

    thomas.h Registrierter Benutzer

    Im Board seit:
    19.08.03
    Zuletzt hier:
    13.11.16
    Beiträge:
    2.925
    Zustimmungen:
    36
    Kekse:
    5.502
    Erstellt: 27.02.05   #2
    Du beschreibst die Technik Sweeppicking, dazu kannst du auch hier im Forum was per SUFU finden. Ob es Kirk auch so macht, keine Ahnung, ich hab auch keine Ahnung, wie schnell das ganze ist...
    Ja, dass sich anfangs die Töne vermischen glaub ich dir gerne, das ist die Schwierigkeit am Sweepen. Und da kommt auch gleich Frage 2: Ja, es ist auch nicht unbedingt leicht:)
     
Die Seite wird geladen...

mapping