Rolling Stones - Sympathy for the Devil

von ThePolice, 20.10.06.

  1. ThePolice

    ThePolice Registrierter Benutzer

    Im Board seit:
    24.10.05
    Zuletzt hier:
    19.08.10
    Beiträge:
    576
    Ort:
    Bayern
    Zustimmungen:
    0
    Kekse:
    188
    Erstellt: 20.10.06   #1
    Hi,

    entweder bin ich zu unfähig oder der Teil stimmt einfach nicht.
    Es geht um das 1 Solo.

    Code:
    [COLOR="DarkRed"]|-(12)r-10--------------------------(12)r-10------------| 
    |---------8h10p8----------------------------8h10p8------| 
    |---------------9~~-------------------------------9~~---| 
    |-------------------------------------------------------| 
    |-------------------------------------------------------| 
    |-------------------------------------------------------| 
    [/COLOR]
                  .                       .
    |------------------------------------10b------------17b-17~~~~-----------------|
    |-----8--10--10b--------------8--10----------------------------17b(20)-17~~~~~-|
    |--9-----------------------9---------------------------------------------------|
    |------------------------------------------------------------------------------|
    |------------------------------------------------------------------------------|
    |------------------------------------------------------------------------------|
    
              .                               .
    |-17p15--17--17p15--15-17----------15-17-17b-17-15h17-----|
    |------17---------17-----1717---17--------------------17~-|
    |---------------------------------------------------------|
    |---------------------------------------------------------|
    |---------------------------------------------------------|
    |---------------------------------------------------------|
    
               .                                 .         .            .    .
    ----15-17-17b-17-15-17------------------------------------------------------|
    -17--------------------17b(20)-17~~~~-------17--------17--------17-17---17--|
    ----------------------------------------------------------------------------|
    ----------------------------------------------------------------------------|
    ----------------------------------------------------------------------------|
    ----------------------------------------------------------------------------|
    
               .
    |----15-17-17b-17-15h17-15~~~~---15-17p15-17brp15-17p15-17p15------------------|
    |-17---------------------------17----------------------------17~~~~-17~~~~-17/-|
    |------------------------------------------------------------------------------|
    |------------------------------------------------------------------------------|
    |------------------------------------------------------------------------------|
    |------------------------------------------------------------------------------| 
    Es geht genauer eigentlich nur um das rot markierte. Ich weiss noch nicht mal ob das 100 Prozent stimmt.

    Gruss,

    ThePolice
     
Die Seite wird geladen...

mapping