Einfache Ukulele Tabs

Leef
Leef
Registrierter Benutzer
Zuletzt hier
03.12.22
Registriert
16.03.07
Beiträge
4.451
Kekse
6.458
Als Anfänger war/bin ich immer auf der Suche nach einfachen Melodien die man schnell lernen kann. Da ich kaum bekannte Tabs gefunden habe, dachte ich mir - dann machen wir sie einfach selbst. Dazu habe ich mir ein kleines Programm geschrieben, wo man mit einem Midi Keyboard eine Melodie einspielt und diese anschließend in Ukulele Tabs konvertiert wird.

Auf Wunsch kann die Melodie auch vereinfacht werden, dabei versucht das Programm möglichst viele 0 Tabs zu erzeugen. Die Tonart stimmt dann zwar nicht mehr überein, aber das stört eigentlich weniger.

Ich hoffe ein paar Anfängern damit eine Freude zu bereiten und das gleiche Erfolgserlebnis zu bescheren was ich hatte :great:

Das Programm gibts hier (der Link ist ziemlich weit unten): https://www.musiker-board.de/vb/plauderecke/229445-kleines-programm-stimmt-die-theorie.html

Wer Fragen oder Anregungen zum Programm hat kann mich auch gern kontaktieren!

Und hier nochmal eine Auswahl an Tabs die durch das Programm erzeugt wurden (teilweise nachträglich noch besser lesbar formatiert):
Code:
Stille Nacht, Heilige Nacht

B |:-----0------:|--5--5--2--3--3---|
F#|:-----------0:|------------------|
D |:------------:|------------------|
A |:--0-----0---:|-----------------0|


B |:--0--0--3--2--0|-----0------:|
F#|:---------------|-----------0:|
D |:---------------|------------:|
A |:---------------|--0-----0---:|

B |--5--5--8--5--2--3--7|
F#|---------------------|
D |---------------------|
A |---------------------|

B |--3------------------|
F#|--------0-----1------|
D |-----------------2--0|
A |-----0-----0---------|

Oh Tannenbaum

B |------------|-----0--0--0|--0-----0--1---------|--3--3--0--5|
F#|-----1--1--1|------------|--------------0-----1|------------|
D |--0---------|------------|---------------------|------------|
A |------------|--0---------|-----0-----------0---|------------|

B |--3--3--1--1|--1--1-----3--1--1--0--0|------------|-----0--0--0|
F#|------------|------------------------|-----1--1--1|------------|
D |------------|------------------------|--0---------|------------|
A |------------|--------0---------------|------------|--0---------|

B |--0-----0--1----------|
F#|-------------0-----1--|
D |----------------------|
A |----0-----------0-----|

Ihr Kinderlein kommet

B |--0--0-----0--0|-----0---------|-----0--0-----0|--0-----0------|
F#|--------2------|--2--------0---|--2--------2---|-----2--------0|
D |---------------|---------------|---------------|---------------|
A |---------------|--------0-----0|---------------|-----------0---|

B |---------------|---------------|--------2--2--0|--0--0--5--0---|
F#|-----2--2--0--0|--0-----------2|--2--2---------|--------------2|
D |---------------|---------------|---------------|---------------|
A |--0------------|-----0--0--0---|---------------|---------------|

B |------------|
F#|-----0------|
D |--------1--2|
A |--0---------|

Aerith Theme

B |--------3|--1------|--------3|--2--5--3--0--2---|
F#|--0------|---------|--0------|------------------|
D |---------|--------2|---------|------------------|
A |-----0---|-----0---|-----0---|-----------------0|

B |--------3|--1------|---------|---------------|
F#|--0------|---------|---------|---------------|
D |---------|--------2|--0--2--0|--3--2--0--2--0|
A |-----0---|-----0---|---------|---------------|

Na dann viel Spaß! :great:
 
Eigenschaft
 
GrooveT14
GrooveT14
Registrierter Benutzer
Zuletzt hier
22.08.09
Registriert
18.09.08
Beiträge
11
Kekse
0
Ort
Heilbronn
respekt^^
echt gut gemacht^^
ich hätte dafür keine geduld ;-)
 

Ähnliche Themen


Unser weiteres Online-Angebot:
Bassic.de · Deejayforum.de · Sequencer.de · Clavio.de · Guitarworld.de · Recording.de

Musiker-Board Logo
Oben