Frage an "AC/DC"-Kenner

von LuckLive, 27.07.04.

  1. LuckLive

    LuckLive Registrierter Benutzer

    Im Board seit:
    19.08.03
    Zuletzt hier:
    10.09.12
    Beiträge:
    191
    Ort:
    Halle
    Zustimmungen:
    0
    Kekse:
    10
    Erstellt: 27.07.04   #1
    Hi!
    Den Anfang von "Hells Bells" findet man meistens so hier:

    e|--0--------------|-----------------|--0--------------|----------------------|
    b|-------3-------1-|------3----------|-------3-------1-|------3---------------|
    g|----------2------|--0-------2------|-----------2-----|--0-------------------|
    D|-----------------|-----------------|-----------------|---------5---5--------|
    A|0---0--------0---|----0--------0-0-|-----0-------0---|----0----3---2---0----|
    E|-----------------|-----------------|-----------------|----------------------|

    Es gibt aber auch das:

    E|-------------------------|------------------------|------------------------|
    B|-------------------------|------------------------|------------------------|
    G|-----9-----7----------5--|----------7-------------|----9-----7----------5--|
    D|--------7-------7--------|----5----------7--------|-------7-------7--------|
    A|--0----------------0-----|-------0----------0--0--|------------------0-----|
    E|-------------------------|------------------------|------------------------|

    |------------------------|------------------------|
    |------------------------|------------------------|
    |----9-----7----------5--|----------7----------2--|
    |-------7-------7--------|----5-----7----5--5--2--|
    |------------------0-----|-------0-------3--2--0--|
    |------------------------|------------------------|


    Von den Noten her ist ja beides fast identisch. Mich interessiert aber,
    wie spielt das Herr Young?

    MfG
     
  2. Lenny

    Lenny Registrierter Benutzer

    Im Board seit:
    19.08.03
    Zuletzt hier:
    18.03.14
    Beiträge:
    1.115
    Zustimmungen:
    9
    Kekse:
    49
    Erstellt: 27.07.04   #2
    Ich weiss nur, dass die erste Variante so wie du sie notiert hast im offiziell erwerblichen Songbook vorzufinden ist, hab grad mal in meins reingeschaut.
    Hoffe das hilft dir weiter. :rock:
     
  3. LuckLive

    LuckLive Threadersteller Registrierter Benutzer

    Im Board seit:
    19.08.03
    Zuletzt hier:
    10.09.12
    Beiträge:
    191
    Ort:
    Halle
    Zustimmungen:
    0
    Kekse:
    10
    Erstellt: 27.07.04   #3
    Also wenns im Songbook so steht, wirds so wohl original sein.
    Ich dachte nur, es hätte vielleicht mal jemand beim Konzert beobachtet oder so.
    Trotzdem danke.
    :great:
     
  4. Christoph

    Christoph Registrierter Benutzer

    Im Board seit:
    18.08.03
    Zuletzt hier:
    6.12.16
    Beiträge:
    1.013
    Ort:
    H-Haus
    Zustimmungen:
    0
    Kekse:
    87
    Erstellt: 27.07.04   #4
    also wenn wir das mal spielen...spiel ich immer die zweite variante. Ist gemütlicher :)
     
  5. ax

    ax Registrierter Benutzer

    Im Board seit:
    04.07.04
    Zuletzt hier:
    9.03.08
    Beiträge:
    8
    Ort:
    Zürich
    Zustimmungen:
    0
    Kekse:
    10
    Erstellt: 27.07.04   #5
    In einem der Tabs die ich vom Net habe (von mxtabs?) steht dass der Autor die Fingering (2. Variante) direkt von einem Live-Video abgespickt hat. Ist echt gemütlicher :great:
     
  6. Lazzaro

    Lazzaro Registrierter Benutzer

    Im Board seit:
    21.08.03
    Zuletzt hier:
    24.11.16
    Beiträge:
    151
    Zustimmungen:
    2
    Kekse:
    11
    Erstellt: 27.07.04   #6
    ich mein auch aufm live video die 2. variante gesehen zu haben
     
  7. RAGMAN

    RAGMAN Mod Emeritus - Gitarren Ex-Moderator

    Im Board seit:
    19.08.03
    Zuletzt hier:
    31.08.13
    Beiträge:
    5.410
    Ort:
    zu Hause...
    Zustimmungen:
    12
    Kekse:
    2.538
    Erstellt: 28.07.04   #7
    In dem Musikviedeo aus den 80er spielt er auch eindeutig die zweite Variante.

    Das würde auch besser zum Prinzip von Angus und Malcolm passen.
    Malcolm spielt eher in den tiefen Lagen und Angus meist höher. So ergiebt sich eine breitere Klangfülle als wenn alle in der gleichen Lage rumschrammeln.

    Die Noten/TABs aus den Songsbooks sind auch nur von irgendwelchen Musiker rausgehört und aufgeschrieben worden. Ob das also immer den Tatsachen entspricht ist fraglich.



    RAGMAN
     
Die Seite wird geladen...

mapping