Staind - Outside (akustik) help

von BATHOR, 07.04.04.

  1. BATHOR

    BATHOR Registrierter Benutzer

    Im Board seit:
    06.10.03
    Zuletzt hier:
    6.12.04
    Beiträge:
    150
    Zustimmungen:
    0
    Kekse:
    10
    Erstellt: 07.04.04   #1
    Hi,

    Ich wollt mich auch mal wieder melden ;)
    und ich hab nen Lied gefunden,
    was ich ziemlich geil finde.
    Nur hab ich wirklich keine Ahnung, wie ich
    das auf meiner Akkustik greifen soll :confused:
    wäre echt nett, wenn ich mir nen paar tipps geben könntet,
    ich habe nur keine ahnung ob dieser Tab richtig ist,
    weil ich schon viele verschiedene versionen von gesehen hab.

    Intro:

    E-7--7--7-7-7-7---5--5--5-5-5-5
    A-7--7--7-7-7-7---5--5--5-5-5-5
    D-9--9--9-9-9-9---7--7--7-7-7-7
    G-9--9--9-9-9-9---7--7--7-7-7-7
    B-7--7--7-7-7-7---5--5--5-5-5-5
    E-7--7--7-7-7-7---5--5--5-5-5-5

    E-3--3--3-3-3-3---5--5--5--5-5
    A-5--5--5-5-5-5---7--7--7--7-7
    D-5--5--5-5-5-5---7--7--7--7-7
    G-3--3--3-3-3-3---5--5--5-----
    B-3--3--3-3-3-3---5--5--5-----
    E-3--3--3-3-3-3---5--5--5-----


    Verse:

    E-7--7--7-7-7-7---5--5--5-5-5-5--5
    A-7--7--7-7-7-7---5--5--5-5-5-5--5
    D-9--9--9-9-9-9---7--7--7-7-7-7--7
    G-9--9--9-9-9-9---7--7--7-7-7-7--7
    B-7--7--7-7-7-7---5--5--5-5-5-5--5
    E-7--7--7-7-7-7---5--5--5-5-5-5--5

    E-3--3--3-3-3-3---5--5-5-5--5--5-5
    A-5--5--5-5-5-5---7--7-7-7--7--7-7
    D-5--5--5-5-5-5---7--7-7-7--7--7-7
    G-3--3--3-3-3-3---5--5------5--5-5
    B-3--3--3-3-3-3---5--5------5--5-5
    E-3--3--3-3-3-3---5--5------5--5-5


    Chorus:

    E--0--0--0-0-0--3--3--3-3-3
    A--2--2--2-2-2--2--2--2-2-2
    D--2--2--2-2-2--0--0--0-0-0
    G--1--1--1-1-1--0--0--0-0-0
    B--0--0--0-0-0--3--3--3-3-3
    E--0--0--0-0-0--3--3--3-3-3

    E--------------------------
    A---------------0--0--0-0-0
    D--0--0--0-0-0--2--2--2-2-2
    G--2--2--2-2-2--2--2--2-2-2
    B--3--3--3-3-3--0--0--0-0-0
    E--2--2--2-2-2-------------

    MfG. BATHOR
     
  2. Solo.Machine

    Solo.Machine Registrierter Benutzer

    Im Board seit:
    16.03.04
    Zuletzt hier:
    21.11.05
    Beiträge:
    959
    Ort:
    Karben
    Zustimmungen:
    2
    Kekse:
    10
    Erstellt: 07.04.04   #2
    habs auchmal gespielt aber so hört sich wesentlöich besser an


    ---------0--0------0--0----0--0----0--0------------------------
    ---------0--0------0--0----0--0----0--0---------------------------
    ---------9--9------7--7----0--0----0--0-----------------------------
    ---------9--9------7--7----5--5----7--7-----------------------------
    ---------7--7------5--5----5--5----7--7----------------------------
    ---------x--x------x---x----3--3----5--5----------------------------

    also das sind jetzt nur die Akkorde zum geifen
    den Rytmus und wie oft duss spielt muss du halt selber rausbekommen (war zu faul :) )
     
  3. Mick #7

    Mick #7 Registrierter Benutzer

    Im Board seit:
    03.02.04
    Zuletzt hier:
    11.11.13
    Beiträge:
    602
    Ort:
    Frankfurt/Maintal
    Zustimmungen:
    0
    Kekse:
    187
    Erstellt: 07.04.04   #3
    das sind baree (kA wie mans schreibt) akkorde so weit wie ich das sehen kann.

    das bedeutet das du mit einem finger komplett alles durchgreifst. das is dann meisstens oda eigentlich immer der zeigefinger. und mit den restlichen 3 fingern greifst du dann den anderen quatsch. das wars eigentlich schon ;)

    ich hoffe ich konnte helfen^^
     
  4. BATHOR

    BATHOR Threadersteller Registrierter Benutzer

    Im Board seit:
    06.10.03
    Zuletzt hier:
    6.12.04
    Beiträge:
    150
    Zustimmungen:
    0
    Kekse:
    10
    Erstellt: 07.04.04   #4
    @Mick #7
    ich hab mich schon öfters im Forum umgeschaut und baree greifen,
    soll ziemlich schwer sein fürn anfang, ich kanns auch nich wirklich greifen
    aber aufjedenfall danke

    @solo.machine
    danke für die Akkorde, die sind auch besser zu greifen,
    nur irgendwie bin ich mir total unsicher, es gibt so viele
    verschiedene tabs von diesem lied.


    z.b auf www.powertabs.net, gibts nen tab der geht so
    ----------------------------------------------------------
    ---------7--7------5--5----3--3----5--5------------------
    ---------9--9------7--7----3--3----5--5------------------
    ---------9--9------7--7----5--5----7--7------------------
    ---------7--7------5--5----5--5----7--7------------------
    ----------------------------3--3----5--5-----------------

    dann hab ich noch einen im Gp4 format gefunden
    der ist wieder ganz anders
    und auf mxtabs.net gibts auch noch mal wieder andere versionen

    könnt ihr mir vielleicht sagen, welche von diesen Tabs, ambesten
    auf einer Akkustik klingen, ambesten so, das es sich genau wie
    staind feat Fred durst - outside live anhört
    wäre echt dankbar, wenn das lied sonst hier noch jemand kennt,
    und mir tipps geben kann, welche tabs dafür ambesten sind,
    weil sowas verwirrt mich immer.

    thx BATHOR
     
Die Seite wird geladen...

mapping