Frage zu Dream Theater-Strange DejaVu

von whitie, 30.08.06.

  1. whitie

    whitie Registrierter Benutzer

    Im Board seit:
    05.01.06
    Zuletzt hier:
    30.01.15
    Beiträge:
    606
    Ort:
    Bare-Leen
    Zustimmungen:
    1
    Kekse:
    184
    Erstellt: 30.08.06   #1
    mahlzeit!

    wollt mich mal an diesen song machen (da ich die vorszene Overture1928 schon fast komplett kann) und hab gleich zu beginn ein problem......
    zwischen dem hier


    E||--------------------------------|---------------------|
    B||--------------------------------|---------------------|
    G||--8-8-8-8----8-8-8-8----7-7-7---|-----7-7-7-7---|
    D||--6-6-6-6----6-6-6-6----6-6-6---|-----6-6-6-6---|
    A||--------------------------------|---------------------|
    E||--4-4-4-4----4-4-4-4----4-4-4---|-----4-4-4-4---|


    spielt petrucci sowas hier (hoffe dass es so überhaupt richtig is):

    E||-------------------------|
    B||------------------------|
    G||------------------------|
    D||-------6--------7-----|
    A||---------5--------6---|
    E||--0h4-----4h5------5-|

    so... mein problem is, dass ich nich weiß wie ich das spielen soll, ich meine man denkt zuerst an einmal runtersweepen... aber wenn ich auf den basssaiten (nur auf denen) sweepe, entstehen heftige nebengeräusche, sodass man gar nix mehr versteht...
    und mit normalem picking klappts auch nich weil --> zu schnell (mir zumindest)

    kann mir jemand was empfehlen oder weiterhelfen?:)
     
  2. pairo

    pairo Gesperrter Benutzer

    Im Board seit:
    24.12.04
    Zuletzt hier:
    3.02.12
    Beiträge:
    135
    Zustimmungen:
    0
    Kekse:
    111
    Erstellt: 30.08.06   #2
    das ist mit normalem wechselschlag gespielt und eigentlich sogar recht machbar in orginalgeschwindigkeit. ich glaub du musst einfach üben, ist halt ein recht schwerer song.
     
  3. whitie

    whitie Threadersteller Registrierter Benutzer

    Im Board seit:
    05.01.06
    Zuletzt hier:
    30.01.15
    Beiträge:
    606
    Ort:
    Bare-Leen
    Zustimmungen:
    1
    Kekse:
    184
    Erstellt: 30.08.06   #3
    mh ja... werd ich wohl üben müssen :)

    btw: so schwer find ich den gar nicht weil da kein richtiges "solo" drin is... halt die stelle inner mitte, aber das is ja nix mit shredden :D also machbar *hihi*

    und wenn man overture kann, kann man schon einige riffs des songs
     
Die Seite wird geladen...

mapping