Frage zu "Stay Together For The Kids" von Blink 182

  • Ersteller Volcom182
  • Erstellt am
Volcom182

Volcom182

Registrierter Benutzer
Zuletzt hier
12.05.15
Registriert
16.01.09
Beiträge
143
Kekse
89
Ort
nahe Fulda
Hallo,
Ich bin eigentlich Bassist. Habe mir jedoch mal die tabs von "Stay Together for the Kids" von "Blink 182" angeschaut.
Diese sind wie folgt:

intro
e|----------------------------------------------------|
b|----------------------------------------------------|
g|----------------------------------------------------|
d|--0-7-0-4-0-0-7-0-4-0-0-4-0-5-0-2-4-5-4-2-0-|
a|-5-5---5---4-4---4---2-2---2---0-0--------------|
e|----------------------------------------------------|

Jetzt kommt meine Frage: Warum spielt man es nicht einfach so? :

e|---------------------------------
b|---------------------------------
g|---------------------------------
d|--------7-----4---------7-----4 usw....
a|-5-5-5---5-5--5-4-5-4--5-4--
e|---------------------------------

.., weil der 5. Bund ist doch das gleiche wie die darüberliegende Leersaite, oder etwas nicht? Es wäre doch viel einfacher. :confused:
 
R

Red-Guitar

Registrierter Benutzer
Zuletzt hier
08.06.13
Registriert
22.10.07
Beiträge
2.492
Kekse
4.092
Wenn du es spielst, merkst du, dass es eigentlich egal ist und die Sache IMHO vereinfacht, da du dann nach einer Leersaite eine Note greifst und nicht nach einer gegriffenen wieder eine.
Außerdem klingt es auch anders, musst du mal gucken. Besonders, wenn die Saiten minimal verstimmt sind, klingt es IMHO sogar noch beser. ;)
Achja, die Tabs sind falsch.
e|----------------------------------------------------|
b|----------------------------------------------------|
g|----------------------------------------------------|
d|--0-7-0-4-0-0-7-0-4-0-0-4-2-0-5-0-2-4-5-4-2-0-|
a|-5-5---5-4-4---4------2-2------------0-0----------|
e|----------------------------------------------------|
So, minimal, ist aber so richtig. ;)
 
Fridolin K.

Fridolin K.

Registrierter Benutzer
Zuletzt hier
02.10.20
Registriert
18.10.05
Beiträge
1.880
Kekse
9.512
Ort
Stuttgart
Zwei Saiten zusammen Klingen einfach nach mehr und der Mehraufwand ist doch 'n Witz.
Das ist wie momophones Gedudel bei alten Handys, klingt nach nix.
 
H

hallio

Registrierter Benutzer
Zuletzt hier
30.07.17
Registriert
15.12.06
Beiträge
65
Kekse
-194
ja es ist halt einfach wichtig das die leersaite wenn man sie anschlägt nicht aufhört zu schwingen, und somit gemeinsam mit der saite drüber schwingt.
 

Ähnliche Themen

Neue Themen

Unser weiteres Online-Angebot:
Bassic.de · Deejayforum.de · Sequencer.de · Clavio.de · Recording.de

Musiker-Board Logo
Oben