"Feasting on the Blood of the Insane": Fragen zu TAB

von Snowball, 12.12.05.

  1. Snowball

    Snowball Registrierter Benutzer

    Im Board seit:
    13.11.05
    Zuletzt hier:
    4.05.07
    Beiträge:
    358
    Ort:
    Düsseldorf
    Zustimmungen:
    0
    Kekse:
    12
    Erstellt: 12.12.05   #1
    Hier die TABs

    Generell hab ich die Frage, woher man weiß, wie schnell man spielen muss. Muss man sich dazu nebenher den Song anhören?


    normal tuning 2 steps down C,F,Bb,Eb,G,C
    * = Trill wtf ist ein Trill?
    =palm muting was ist denn nun gepalmmuted?

    Intro guitar 1
    |--------------------------------|
    |--------------------------------|
    |--------3---------------3-------|
    |2-------1-------2-------3-------|
    |2-------1-------2-------1-------|
    |0---------------0---------------|
    Intro guitar 2
    |--------------------------------|
    |--------------------------------|
    |------------------------6-------|
    |3-------2-------3-------6-------|
    |3-------2-------3-------4-------|
    |1-------0-------1---------------|
    Intro Riff
    |------------------------------------|
    |------------------------------------|
    |------------------------------------|
    |2-----------------------------------|
    |2---/7---5*6---2---3------2---1*2---| Der Slash ist doch ein Slide, oder? Aber was für einer?
    |0----------------------1------------|
    Intro Riff Ending
    |--------------------|
    |--------------------|
    |------------4---3---|
    |2---4---5---4---3---|
    |2---4---5---2---1---|
    |0---2---3-----------|
    Riff 1
    |--------------------------------------------|
    |--------------------------------------------|
    |--------------------------------------------|
    |2-----------2-----------5-----------6---3---|
    |2-----------2-----------5-----------6---3---|
    |0---0-0-0-0-0---0-0-0-0-3---0-0-0-0-4---1---|
    . . . . . . . . . . . . Was bedeuten diese Punkte?
    Riff 2
    |--------------------------------------------|
    |--------------------------------------------|
    |------------3-------------------------------|
    |2-----------3-----------5-----------6---3---|
    |2-----------1-----------5-----------6---3---|
    |0---0-0-0-0-----0-0-0-0-3---0-0-0-0-4---1---|
    . . . . . . . . . . . .
    Fill
    |--------------------------------|
    |--------------------------------|
    |--------------------------------|
    |----7-------8-------5-------3---|
    |----7-------8-------5-------3---|
    |0-0-5---0-0-6---0-0-3---0-0-1---|
    . . . . . . . .
    Riff 3
    |------------------------------------------------------------|
    |------------------------------------------------------------|
    |------------------------------------------------------------|
    |2---------5-----2-----3-----2---------5-----2-----3---------|
    |2---------5-----2-----3-----2---------5-----2-----3---------|
    |0-0-0-0-0-3-0-0-0-0-0-1-0-0-0-0-0-0-0-3-0-0-0-0-0-1-0-0-0-0-|
    . . . . . . . . . . . . . . . . . . . . . .
    Riff 3 (Continued)
    |------------------------------|
    |------------------------------| in both the riff 3’s not all the 0’s
    |------------------------------| are palm muted!!!!
    |5-----2-----3---------3---5---|
    |5-----2-----3---------3---3---|
    |3-0-0-0-0-0-1-0-0-0-0-1---3---|
    . . . . . . . .
    |-------------------------------------------------------------------------|
    |-------------------------------------------------------------------------|
    |-------------------------------------------------------------------------|
    |-------------------------------------------------------------------------|
    |-------------------------------------5-5-5-5-5-5-5-5-5-5-5-5-5-5-5-5-----|
    |-----3-3-3-3-3-3-3-3-3-3-3-3-3-3-3-3-------------------------------------|
    . . . . . . . . . . . . . . . . . . . . . . . . . . . . . . . .
    |-------------------------------------------------------------------------|
    |-------------------------------------------------------------------------|
    |-------------------------------------------------------------------------|
    |-------------------------------------------------------------------------|
    |-------------------------------------4-4-4-4-4-4-4-4-4-4-4-4-4-4-4-4-----|
    |-----2-2-2-2-2-2-2-2-2-2-2-2-2-2-2-2-------------------------------------|
    . . . . . . . . . . . . . . . . . . . . . . . . . . . . . . . .
     
  2. Maxi

    Maxi Registrierter Benutzer

    Im Board seit:
    04.09.05
    Zuletzt hier:
    9.12.16
    Beiträge:
    3.849
    Zustimmungen:
    350
    Kekse:
    5.099
    Erstellt: 12.12.05   #2
    ja du must dir das lied anhöhren, und die punkte bedeuten das der Ton abgedämpft wird schauhhierzu bei der sufu im board nach da findest du brauchbare ergebnisse!
    Der / dürfte ein Slide sein!

    MFG. Maxi
     
  3. Snowball

    Snowball Threadersteller Registrierter Benutzer

    Im Board seit:
    13.11.05
    Zuletzt hier:
    4.05.07
    Beiträge:
    358
    Ort:
    Düsseldorf
    Zustimmungen:
    0
    Kekse:
    12
    Erstellt: 12.12.05   #3
    Was ist denn ein Trill?

    edit: Was bedeutet es denn, wenn der Slash für den Slide andersherum ist? Wie kennzeichnet man slide-in und wie -out?
     
  4. Maxi

    Maxi Registrierter Benutzer

    Im Board seit:
    04.09.05
    Zuletzt hier:
    9.12.16
    Beiträge:
    3.849
    Zustimmungen:
    350
    Kekse:
    5.099
    Erstellt: 13.12.05   #4
    / slide up
    \ slide down
    würde ich sagen!

    Trill dürfte dann sowas sein:
    in deinem tab steht: 5*6
    ich dencke ausgeschreiben währe das dann sowas: 5-6-5-6-5-6-5-6-5-6-5-6-5-6
    wobei du alle mir hammeron und pulloffs spielst also ohne anzuschlagen!

    Ansonsten benutz doch bitte mal die sufu und du findest meistens was vernünftiges!

    MFG. Maxi
     
  5. Farbenfinsternis

    Farbenfinsternis Registrierter Benutzer

    Im Board seit:
    14.06.05
    Zuletzt hier:
    24.10.11
    Beiträge:
    387
    Ort:
    Hamburg
    Zustimmungen:
    0
    Kekse:
    44
    Erstellt: 14.12.05   #5
    mhhh ich erinnere mich dran mal eine guitar lesson von BB King gesehen zuzhaben wo er den begriff "trill" für seine finger vibrato technik benutzt hat.
     
  6. Korgun

    Korgun Registrierter Benutzer

    Im Board seit:
    05.06.05
    Zuletzt hier:
    26.04.10
    Beiträge:
    368
    Zustimmungen:
    1
    Kekse:
    116
    Erstellt: 14.12.05   #6
    naja theoretisch kannst du ein vibrato machen, oder ein hammer on /pull of oder sliding, tapping müsste auch gehen, etc. wäre dann alles ein trillern, der taber hatte einfach nur keine lust alles zu tabben?! keine garantie drauf aber so müsste es zumindest sein.
     
  7. Maxi

    Maxi Registrierter Benutzer

    Im Board seit:
    04.09.05
    Zuletzt hier:
    9.12.16
    Beiträge:
    3.849
    Zustimmungen:
    350
    Kekse:
    5.099
    Erstellt: 14.12.05   #7
    jop sehe ich auch so hauptsache der ton verändert sich aber bei dem lied passt hammer-on / pull of am besten finde ich!
     
Die Seite wird geladen...

mapping