Gitarre bei Bombtrack-intro

von CastorTroy, 19.07.04.

  1. CastorTroy

    CastorTroy Registrierter Benutzer

    Im Board seit:
    21.10.03
    Zuletzt hier:
    8.08.07
    Beiträge:
    376
    Ort:
    Nähe Mainz
    Zustimmungen:
    0
    Kekse:
    17
    Erstellt: 19.07.04   #1
    hi leute

    nach langer diskussion mit meinen freunden aus der abi-band frag ich jetzt euch!

    Rage Against the Machine - Bombtrack

    das lied hat dieses lange intro!
    frage: was spielt die gitarre da??

    meiner meinung nach spielt die gitarre nur zweimal dies hier:

    e------------------
    H------------------
    G-----0h2p0-----

    hab bisher aber auch schon aus vielen quellen gehört, die gitarre genau dasselbe wie der bass spielt!
    im clean und pm
     
  2. Smoked Illusion

    Smoked Illusion Registrierter Benutzer

    Im Board seit:
    10.06.04
    Zuletzt hier:
    15.08.10
    Beiträge:
    64
    Ort:
    Pfalz
    Zustimmungen:
    2
    Kekse:
    10
    Erstellt: 19.07.04   #2
    Meines Wissens spielt die Gitarre das.

    Code:
    e-------------------------------------------------------|
    a-------------------------------------------------------|
    d--------------------------------------------0----------|
    g-----2--0-----0--------------2--0-----0--2-------------|
    b-----------2-----2--0--------------2-------------------|
    e--0--------------------3--0----------------------------|
    
    e-------------------------------------------------------|
    a-------------------------------------------------------|
    d-------------------------------------------------------|
    g-----2--0-----0--------------2--0-----0----------------|
    b-----------2-----2--0--------------2-----2-------------|
    e--0--------------------3--0-----------------3--2-------|
    
    e-------------------------------------------------------|
    a-------------------------------------------------------|
    d--------------------------------------------(02)-0-----|
    g-----2--0-----0--------------2--0-----0--2-------------|
    b-----------2-----2--0--------------2-------------------|
    e--0--------------------3--0----------------------------|
    alles abgedämpft?! Also so spiel ich das lied mal
     
  3. Der Wemmser

    Der Wemmser Registrierter Benutzer

    Im Board seit:
    30.06.04
    Zuletzt hier:
    16.02.16
    Beiträge:
    192
    Ort:
    Ahlde
    Zustimmungen:
    0
    Kekse:
    10
    Erstellt: 20.07.04   #3
    Ich spiel auch genau das gleich wie der Bas des tut !Mach auch mehr spass bei den intros mitzuspielen und nich über die kunst des bassisten zu staunen ;)
     
  4. The Mars Volta

    The Mars Volta Registrierter Benutzer

    Im Board seit:
    19.07.04
    Zuletzt hier:
    15.12.13
    Beiträge:
    875
    Ort:
    Berlin
    Zustimmungen:
    7
    Kekse:
    965
    Erstellt: 20.07.04   #4
    jap ... die gitarre spielt das selbe wie der bass ... nur abgedämpft
     
  5. -Inf1nity-

    -Inf1nity- Registrierter Benutzer

    Im Board seit:
    31.03.04
    Zuletzt hier:
    18.02.11
    Beiträge:
    315
    Ort:
    Köln
    Zustimmungen:
    0
    Kekse:
    10
    Erstellt: 20.07.04   #5
    jau da hatter recht, spielt die gitarre alles mit
     
  6. CastorTroy

    CastorTroy Threadersteller Registrierter Benutzer

    Im Board seit:
    21.10.03
    Zuletzt hier:
    8.08.07
    Beiträge:
    376
    Ort:
    Nähe Mainz
    Zustimmungen:
    0
    Kekse:
    17
    Erstellt: 20.07.04   #6
    ok danke
    dann wär das geklärt
     
  7. Comrade

    Comrade Registrierter Benutzer

    Im Board seit:
    19.02.04
    Zuletzt hier:
    4.01.14
    Beiträge:
    1.894
    Ort:
    Ingolstadt
    Zustimmungen:
    2
    Kekse:
    276
    Erstellt: 20.07.04   #7
    Mal so nebenbei : Dieses Riff is irgendwie von Aerosmith geklaut worden.Und zwar aus dem Song "Toys in the Attic".Die Noten waren in der vorletzten Gitarre&Bass
    drin...
     
  8. CastorTroy

    CastorTroy Threadersteller Registrierter Benutzer

    Im Board seit:
    21.10.03
    Zuletzt hier:
    8.08.07
    Beiträge:
    376
    Ort:
    Nähe Mainz
    Zustimmungen:
    0
    Kekse:
    17
    Erstellt: 20.07.04   #8
    ich wette dass sie bei rage besser klingen!^^
     
  9. Comrade

    Comrade Registrierter Benutzer

    Im Board seit:
    19.02.04
    Zuletzt hier:
    4.01.14
    Beiträge:
    1.894
    Ort:
    Ingolstadt
    Zustimmungen:
    2
    Kekse:
    276
    Erstellt: 20.07.04   #9
    Sowieso... :great:

    Eigentlich mein ich aber nur das Intro und das wird ja clean gespielt.Also noch nicht so spektakulär...
     
Die Seite wird geladen...

mapping