Wie greife ich das?

  • Ersteller BlackFire
  • Erstellt am
B
BlackFire
Registrierter Benutzer
Zuletzt hier
15.10.21
Registriert
03.04.04
Beiträge
8
Kekse
0
Wollte euch mal fragen wie ihr das greift?
E|------------7------|--------------------|--------------------|
B|------------8------|--------7--------5--|--------3--------4--|
G|----------9--------|--------7--------5--|--------4--------2--|
D|--------9----------|-----7--------5-----|-----5--------4-----|
A|------7------------|--5--------3--------|-----------2--------|
E|--0----------------|--------------------|--3-----------------|

Ich greife das so:
1.)7 auf A Saite = Zeigefinger, 9 auf D = Ringfinger, 9 auf G Kleiner Finger, 8 auf B = Mittelfinger und zum Schluss nehm ich meinen Zeigefinger von der A-Saite und drücke die 7 auf der E-Saite.

2+3.)5 mit Zeigefinger und die drei 7er mit ringfinger als Baree.

4+5.)zeigefinger baree über den dritten bund und 5 und 4 mit RIngfinger und kleinem. Baree über den zweiten bund und die 4er mit RIngfinger und kleinem.

Mit meiner Technik bin ich nicht so zufrieden, da ich es absolut nicht flüssig hinbekomme. jetzt wollt ich nur wissen ob ihr es anders greift oder ich halt weiter so üben soll.
 
Eigenschaft
 
H
Hans_3
High Competence Award
HCA
Zuletzt hier
06.12.22
Registriert
09.11.03
Beiträge
16.625
Kekse
60.439
BlackFire schrieb:
Wollte euch mal fragen wie ihr das greift?
E|------------7------|--------------------|--------------------|
B|------------8------|--------7--------5--|--------3--------4--|
G|----------9--------|--------7--------5--|--------4--------2--|
D|--------9----------|-----7--------5-----|-----5--------4-----|
A|------7------------|--5--------3--------|-----------2--------|
E|--0----------------|--------------------|--3-----------------|

Ich greife das so:
1.)7 auf A Saite = Zeigefinger, 9 auf D = Ringfinger, 9 auf G Kleiner Finger, 8 auf B = Mittelfinger und zum Schluss nehm ich meinen Zeigefinger von der A-Saite und drücke die 7 auf der E-Saite.

Leg doch gleich ein komplettes Barree mit dem ZF.

Die anderen Akk. spiel auch so wie du.
 
Fastel
Fastel
Helpful & Friendly User
HFU
Zuletzt hier
06.12.22
Registriert
11.04.04
Beiträge
6.432
Kekse
20.700
Ort
Tranquility Base
1) spiele ich genauso wie du

2+3) spiele ich: 5 - Zeige 7 und 7 ring und kleiner finger barré.

4) da nehm ich für die |3 zeigefinger| |5 ringfinger (bleibt liegen)| |zeige+mittelfingerwechseln auf 3 und 4|

5) 2 - zeige 4 - ring (beide male)

den rest spiele ich mit den füßen und der zunge
 

Ähnliche Themen


Unser weiteres Online-Angebot:
Bassic.de · Deejayforum.de · Sequencer.de · Clavio.de · Guitarworld.de · Recording.de

Musiker-Board Logo
Oben