I believe in a thing called love 1 solo

von Miachen, 30.01.07.

  1. Miachen

    Miachen Registrierter Benutzer

    Im Board seit:
    20.01.07
    Zuletzt hier:
    14.09.07
    Beiträge:
    12
    Zustimmungen:
    0
    Kekse:
    10
    Erstellt: 30.01.07   #1
    Hi,

    ich kann bisher nur das "solo" aus Smells like Teen spirit und Californication , aba wie spiel ich sowas richtig (fingersatz und so) bekomm das irgendwie garnet hin

    lg mia

    SOLO 1

    (bend and hold, then release)
    E--9----12------12-------E
    B--12^------12------12--B
    G--------------------------G
    D--------------------------D
    A--------------------------A
    E--------------------------E

    (slow bend)
    E-16^16---------------------------E
    B-------17-------------------15^--B
    G----------16-(half)---------------G
    D--------------18^18--14---------D
    A-----------------------------------A
    E-----------------------------------E
     
  2. exorzist

    exorzist Registrierter Benutzer

    Im Board seit:
    17.08.06
    Zuletzt hier:
    1.08.07
    Beiträge:
    2
    Zustimmungen:
    0
    Kekse:
    10
    Erstellt: 31.01.07   #2
    Hi,

    ich würd Dir ja ein paar Tipps geben, aber vielleicht kannst Du etwas verdeutlichen was Dir so Probleme bereitet.
    Was immer mir, speziell bei dem Solo geholfen hat ist einfach die Stelle ganz langsam zu hören.
    Mit nem PC geht das relativ gut z.B. mit der Software "Transcribe", einfach googlen.

    Gruß,
    Dirk

    edit:

    Außerdem würd ich den zweiten Teil so spielen:
    (slow bend)
    E-16^16---------------------------E
    B-------17----------------------15^B
    G----------16-(half)13^13--------G
    D---------------------------14-----D
    A-----------------------------------A
    E-----------------------------------E
     
  3. Miachen

    Miachen Threadersteller Registrierter Benutzer

    Im Board seit:
    20.01.07
    Zuletzt hier:
    14.09.07
    Beiträge:
    12
    Zustimmungen:
    0
    Kekse:
    10
    Erstellt: 01.02.07   #3
    Danke für den Tipp.

    Wo ich irgendwie mit den Fingern nich so schnell zurecht komm is bei der

    9
    12^ und darauf dann die Noten am 12 Bund .

    greif ich da zuerst im zeigefinger die am 9ten und mim ringfinger die am 12 und wie komm ich dann mim zeigefinger zu 12 so schnell oder greif ich die am 12 bund die e und h seite beide nur mim ringfinger?
     
  4. BlackDragon

    BlackDragon Registrierter Benutzer

    Im Board seit:
    20.11.05
    Zuletzt hier:
    20.06.14
    Beiträge:
    251
    Zustimmungen:
    0
    Kekse:
    161
    Erstellt: 01.02.07   #4
    Greif doch die 12 auffer E-Saite mit dem kleinen Finger...oO?
     
  5. headshot

    headshot Registrierter Benutzer

    Im Board seit:
    10.10.06
    Zuletzt hier:
    16.07.12
    Beiträge:
    327
    Ort:
    Baden-Baden
    Zustimmungen:
    1
    Kekse:
    143
    Erstellt: 01.02.07   #5
    also ich würde so greifen
    ---Z-R---K---R--K----R---
    E--9----12------12-------E
    B--12^------12------12--B
    G--------------------------G
    D--------------------------D
    A--------------------------A
    E--------------------------E

    ---M--M-R-M--------Z---Z-M---R--
    E-16^16---------------------------E
    B-------17----------------------15^B
    G----------16-(half)13^13--------G
    D---------------------------14-----D
    A-----------------------------------A
    E-----------------------------------E

    Z= Zeigefinger
    M= Mittelfinger
    R= Ringfinger
    K= Kleiner Finger

    Hoffe ich konnte dir weiterhelfen

    Gruß
     
  6. Miachen

    Miachen Threadersteller Registrierter Benutzer

    Im Board seit:
    20.01.07
    Zuletzt hier:
    14.09.07
    Beiträge:
    12
    Zustimmungen:
    0
    Kekse:
    10
    Erstellt: 01.02.07   #6
    Danke
     
Die Seite wird geladen...

mapping